Misc Irish - Irish National Anthem Chords & Tabs

 

Irish National Anthem Chords & Tabs

Misc Irish Chords & Tabs

Version: 2 Type: Tab 0 ratings
1 star 2 stars 3 stars 4 stars 5 stars
comments

Irish National Anthem Tab

The Irish National Anthem

(Amhrán na Bhfiann)

Tabbed by: apeXaviour (apeXaviour@hotmail.com)


I've been looking for this for ages, 
it dont seem to be anywhere on the net.
So I tabbed it myself.
If you can hum the tune 
or you have a midi of the song or something
then it should come very easy to you.



e  ----------------------------------------------------------------
b  ----------------------------------------------------------------
g  --------0-2-----------------------------------------------------
d  ---3--------3---------------------------------------------------
a  --------------3----3-5--5---5-3--5-3----------------------------
E  --------------------------6-------------------------------------




e  ----------------------------------------------------------------
b  ----------------------------------------------------------------
g  ----------------------------------------------------------------
d  ---3---2---0---2-3-5--7-5--0--2---------------------------------
a  ----------------------------------------------------------------
E  ----------------------------------------------------------------




e  ----------------------------------------------------------------
b  ----------------------------------------------------------------
g  --------0-2-----------------------------------------------------
d  ---3--------3---------------------------------------------------
a  --------------3----3-5--5---5-3--5-3----------------------------
E  --------------------------6-------------------------------------



[ Tab from: http://www.guitartabs.cc/tabs/m/misc_irish/irish_national_anthem_tab_ver_2.html ]
e  ----------------------------------------------------------------
b  ----------------------------------------------------------------
g  ----------------------------------------------------------------
d  ---0---2---2---2-2-2-0------------------------------------------
a  -----------------------3-3--------------------------------------
E  ----------------------------------------------------------------




e  ----------------------------------------------------------------
b  ----------------------------------------------------------------
g  ----------------------------------------------------------------
d  ----------------------------------------------------------------
a  --3---1--0-1---0-1-3--5-3---------------------------------------
E  -------------3--------------------------------------------------




e  ----------------------------------------------------------------
b  ----------------------------------------------------------------
g  ----------------------------------------------------------------
d  ---3--2--0--2--0--2--0------------------------------------------
a  ------------------------3---------------------------------------
E  ----------------------------------------------------------------




e  ----------------------------------------------------------------
b  ----------------------------------------------------------------
g  ---------------------------0--2---------------------------------
d  ---------------------0-2-3--------------------------------------
a  ---3--0-----0--3---3--------------------------------------------
E  ---------1------------------------------------------------------




e  ----------------------------------------------------------------
b  ----------------------------------------------------------------
g  ---2-------------2-0--------------------------------------------
d  ------3----3----------3-3~--------------------------------------
a  ---------3------------------------------------------------------
E  ----------------------------------------------------------------


Comments