Misc Folk - Billy Of Tea Chords & Tabs

 

Billy Of Tea Chords & Tabs

Misc Folk Chords & Tabs

Version: 1 Type: Tab 0 ratings
1 star 2 stars 3 stars 4 stars 5 stars
comments

Billy Of Tea Tab

   
#----------------------------------PLEASE NOTE--------------------------------#
#This file is the author's own work and represents their interpretation of the#
#song. You may only use this file for private study, scholarship, or research.#
#-----------------------------------------------------------------------------#


Date: Wed, 11 Mar 1998 09:31:40 +1000
From: Kevin Woodgate 
Subject: m/misc_folk\billy_of_tea.tab


         Billy Of Tea      Australian Folk Song

Transcribed by K Woodgate

Easy melody Version 
[ Tab from: http://www.guitartabs.cc/tabs/m/misc_folk/billy_of_tea_tab.html ]
The song can be found on records by the Bushwackers, Cobbers, William Clauson 
and many other Australian Folk records.
           D                   G           D
e|----------------|-----------------|--------------------|------------------|
B|----------------|-------------3---|-2--0---------------|------------------|
G|-----0---2----2-|-2---2----2------|--------2-----0-----|-----------------2|
D|-4--------------|-----------------|--------------------|-4----4-----4-----|
A|----------------|-----------------|--------------------|------------------|
E|----------------|-----------------|--------------------|------------------|


              E7          A7       D                    G              D
e|-------------------|---------------|-------------|-----------------|-----|
B|-------------------|---------------|-------------|----3-----2---0--|-----|
G|-0-----------------|-------------2-|--2--2---2---|-2---------------|-2---|
D|-----4------2----2-|-2--2-----4----|-----------4-|-----------------|-----|
A|-------------------|---------------|-------------|-----------------|-----|
E|-------------------|---------------|-------------|-----------------|-----|


                        G              A7        D
e|----------------|----------------|----------------||
B|----------------|----------------|----------------||
G|-2--0------2----|-----0--0-------|----------------||
D|--------4-------|-0----------4---|-4-2---0-----0--||
A|----------------|----------------|----------------||
E|----------------|----------------|----------------||


Comments