Misc Exercises - Adam Leibach Warmup Chords & Tabs

 

Adam Leibach Warmup Chords & Tabs

Misc Exercises Chords & Tabs

Version: 1 Type: Tab 1 rating
1 star 2 stars 3 stars 4 stars 5 stars
comments

Adam Leibach Warmup Tab

Song:Warmup
Artist:Misc.
Tabbed by:Adam Leibach
I basically got this from one of my guitar lesson books, it helps
a lot.  Check it out.
Moderately fast
e|----------------------------------------------------0-1-|
B|---------------------------------------0-1-----0-1-3----|
G|--------------------------0--------0-2-----0-2----------|
D|-----------0-2-------0-2-3----0-2-3---------------------|
A|3-----0-2-3-----0-2-3-------3---------------------------|
E|-0-1-3---------3----------------------------------------|

e|3-0-1-0---------------------------------------------0---|
B|-----3-1-3-0-1-0------------------------------------1---|
G|--------------2-0-2-0-------------------------------0---|
D|-------------------3-2-3-0-2-0--------------------------|
A|----------------------------3-2-3-0-2--0---0-2-3--------|
E|-------------------------------------3--1-3-------------|
[ Tab from: http://www.guitartabs.cc/tabs/m/misc_exercises/adam_leibach_warmup_tab.html ]
Comments