Misc Computer Games - Tetris Theme Chords & Tabs

 

Tetris Theme Chords & Tabs

Misc Computer Games Chords & Tabs

Version: 5 Type: Tab 0 ratings
1 star 2 stars 3 stars 4 stars 5 stars
comments

Tetris Theme Tab

Tetris soundtrack - Type 


||---0-----------------------|--------------0-----------|
||---------0--1--3-----1--0--|-----------1--------3--1--|
||*--------------------------|--2-----------------------|
||*-----2-----2-----2-----2--|-----2-----2-----2-----2--|
||---------2-----------2-----|--0-----------0-----------|
||---0-----------0-----------|--------0-----------0-----|


                                                      
--------------------0-----|--------------------------|
--0--------1--3-----------|--1-----------------------|
--------------------------|--------2-----2-----------|
-----2-----2-----2-----2--|-----2-----2-----2--------|
--------2-----------2-----|--0-----------0-----2--3--|
--0-----------0-----------|--------0-----------------|


                                                      
--------------5-----------|--------------------------|
-----------6--------8--6--|--5-----------5-----3-----|
-----7-----7-----7-----7--|-----------5-----------5--|
--------------------------|-----5-----5-----5-----5--|
--5-----------5-----------|--3-----------3-----------|
--------5-----------5-----|--------3-----------3-----|

[ Tab from: http://www.guitartabs.cc/tabs/m/misc_computer_games/tetris_theme_tab_ver_5.html ]
                                                        
--------------------0-----|---------------------------||
--0--------1--3-----------|--1------------------------||
--------------------------|--------2-----2-----------*||
-----2-----2-----2-----2--|-----2-----2-----2-----2--*||
--------2-----------2-----|--0-----------0------------||
--0-----------0-----------|--------0-----------0------||


                                                      
--0-----------------------|--------------------------|
--1-----------1-----------|--3-----------0-----------|
--------------2-----------|--1-----------1-----------|
-----2-----2-----2-----2--|-----2-----2-----2-----2--|
--0-----------0-----------|--2-----------2-----------|
--------0-----------0-----|--------0-----------0-----|


                                                                              
--------------------------|-----------------------|
--1-----------------------|-----------------------|
--2-----------2-----------|--1--------------------|
-----2-----2-----2-----2--|-----2-----2--2--------|
--0-----------0-----------|--2-----------2--------|
--------0-----------0-----|--------0--------------|


--0-----------------------|
--1-----------1-----------|
--------------2-----------|
-----2-----2-----2-----2--|
--0-----------0-----------|
--------0-----------0-----|

                                                                               
--------------------------|--------0-----5-----------|
--3-----------0-----------|--1-----------------------|
--1-----------1-----------|--------------------------|
-----2-----2-----2-----2--|-----2-----2-----2-----2--|
--2-----------2-----------|--0-----------0-----------|
--------0-----------0-----|--------0-----------0-----|



--4--------------------||
-----------------------||
----------------------*||
-----2-----2----------*||
--2--------------------||
--------0--------------||
Comments