Misc Computer Games - Tetris Theme Chords & Tabs

 

Tetris Theme Chords & Tabs

Misc Computer Games Chords & Tabs

Version: 4 Type: Tab 0 ratings
1 star 2 stars 3 stars 4 stars 5 stars
comments

Tetris Theme Tab

Tetris Theme Guitar Tabs


just do it slowly first so you can distinguish the notes.
plus this is my first tabbed out thing ever so bare with me.

-petrockstar@gmail.com

E 0------------------0---------------0--------|
B -0-1-3--1-0-----1-----3-1-0--0-1-3---1------|
G ------------2-2------------------------2-2--|
D --------------------------------------------|
A --------------------------------------------|
E --------------------------------------------|

[ Tab from: http://www.guitartabs.cc/tabs/m/misc_computer_games/tetris_theme_tab_ver_4.html ]
E ---1--5-3-1-0-----0----------------0--------|
B 3---------------1---3--1--0-0-1-3----1------|
G ---------------------------------------2-2--|
D --------------------------------------------|
A --------------------------------------------|
E --------------------------------------------|

E 0---------------------0--------------1-1-0---|
B --0--3--0--1-1----------0--3--0--1-1---------|
G ---------------2-2--1------------------------|
D ---------------------------------------------|
A ---------------------------------------------|
E ---------------------------------------------|

(repeat for infinity or untill the game ends)
Comments