Misc Computer Games - Tetris Theme Chords & Tabs

 

Tetris Theme Chords & Tabs

Misc Computer Games Chords & Tabs

Version: 2 Type: Bass Tab 0 ratings
1 star 2 stars 3 stars 4 stars 5 stars
comments

Tetris Theme Bass Tab

   
----------------------------------------------------------------------------
	               GameBoy Tetris song (A-type)
----------------------------------------------------------------------------

Tabbed By : Aaron Dull
e-mail: Hendorism@hotmail.com

Tuning: normal

The song actually begins on E, but if you play it in that key, it goes below
the range of the guitar. This bass tab is EXACTLY what you hear from the GameBoy.
Trust me, my mom has a music major degree or something and she helped me a lot.
Each - has the time value of a sixteenth note, but there are no sixteenth notes
in the song, so two numbers together is a double digit fret. If you have 20 frest,
then you can play the first section an octave up if you so desire. The GameBoy
repeats both sections twice over and over and over again
(11221122112211221122112211221122112211221122).
[ Tab from: http://www.guitartabs.cc/tabs/m/misc_computer_games/tetris_theme_btab_ver_2.html ]
                                ~~(1)~~
G|----------------|--6---6---6---6-|--5---5---------|--6---6---6-----|
D|--6---6---6---6-|----------------|----------6---6-|------------1-2-|
A|----------------|4---4---4---4---|3---3-----------|4---4---4-------|
E|4---4---4---4---|----------------|--------4---4---|----------------|

G|----------------|----------------|--8---8-------5-|----------------|
D|4---------------|--2---2---------|----------6-----|--6---6---------|
A|------------4---|----------2-2---|6---------------|4---4---4-------|
E|--2---2---2---5-|0-------0-------|----------------|----------------|

                                ~~(2)~~
G|--13--13--13--13|--13--13--13--13|--13--13--13--13|--13--13--------|
D|11--11--11--11--|10--10--10--10--|11--11--11--11--|10--10--10------|
A|----------------|----------------|----------------|----------------|
E|----------------|----------------|----------------|----------------|



| /  slide up
| \  slide down
| h  hammer-on
| p  pull-off
| ~  vibrato
| +  harmonic
| x  Mute note
============================================================================
Comments