Misc Computer Games - Super Mario Brothers Theme Chords & Tabs

 

Super Mario Brothers Theme Chords & Tabs

Misc Computer Games Chords & Tabs

Version: 1 Type: Bass Tab 0 ratings
1 star 2 stars 3 stars 4 stars 5 stars
comments

Super Mario Brothers Theme Bass Tab

here is the tab to the theme from the original nintendo game "super mario
bros." as written by Luis A-Solis.

the rhythm is hard to write in tablature, but if you can remember the song,
youll get it right away. the song is all in order, just follow it

beginning...

G  ---------------------0-----------------------------------------
D  ----2-2---2----2---------------------------------------------       
A  ---------------3-----------------------------------------------
E  ---------------------------3-----------------------------------

G  --------------------------------------------0-----------------------
D  --------------------------------------2-3-----2--3--0------0-----      x2
A  ---3-----------0--2--1--0----3-----------------------3------2--
E  -------3---0-------------------------------------------------------

G  --0-------------------------------------------0------------------555--
D  -------3--2--0--1--2------------------0-------3-2-0-1-2-----------
A  --------------------------0--2-3--0-3---------------------------------
E  --------------------------------------------------------------------------
[ Tab from: http://www.guitartabs.cc/tabs/m/misc_computer_games/super_mario_brothers_theme_btab.html ]
G  -------0--------------------------------------------------------------
D  ------------3--2--0--1--2------------------0-----1----0----------
A  -------------------------------0--2-3--0-3-------------------3----
E  ----------------------------------------------------------------------

G  -------------------------------------------------------------------------
D  -----------0--2----------------------0--2------------0-2-------------
A  --33-3-3-------3--0------33-3-3--------33-3-3-------3---0-----
E  --------------------------3-------------------------------------------3-

 
G  ---------------------0---------
D  ----2-2---2----2-------------    
A  ---------------3---------------      
E  ---------------------------3---
here you can repeat. if you want to end it, play this part below:

G  ---------------------------------2-22-0-------------------
D  -2----------------------33----------------3--2------------
A  -----3---0------0--2------2--------------------3--0------
E  --------------3-------------------------------------------3--

G  -----------------------------------------------------
D  -2----------------------33--------3--332-0------
A  -----3---0------0--2------2-------------------3--
E  --------------3--------------------------------------

end.
written by Luis A-S. and special thanks to my friend Colin
topman1@aol.com
p.s. dont jack my work, and let me know if you receive this, please.
Comments