Misc Computer Games - Sonic Adventure - Open Your Heart Chords & Tabs

 

Sonic Adventure - Open Your Heart Chords & Tabs

Misc Computer Games Chords & Tabs

Version: 1 Type: Tab 0 ratings
1 star 2 stars 3 stars 4 stars 5 stars
comments

Sonic Adventure - Open Your Heart Tab

   
Sonic Adventure - Open Your Heart
Performed by "Crush 40" 

Tabbed by fatalM4 (matrix@engramstudio.com)

Thanks to Omar for the original tab. I had some corrections to make,
mostly for the chords and main riff. This still might not be exactly
the fingering used in the song but i think it's closer :)  

--key--
/12 slide up to
12\ slide down from
5/7 slide from 5 to 7
7^8 bend 7 up to 8
<5> pinch harmonic (aka artificial harmonic)
x muted note
-------

i couldn't tab out the intro with the heavy delay effect (but it
sounds like a A minor pentatonic scale, and the first note is D
so you can play whatever)

Intro
e|------------------------
B|------------------------
G|--2-2------/14----------
D|--2-2------/14----------
A|--0-0-------------------
E|------------------------

main riff
e|-----------------------------------------------------------------
B|-----------------------------------------------------------------
G|----------/14\--/8\5---7-^8^7-5-7-----------5--------------------
D|----------/14\--/8\5---7-^8^7-5-7-----------5--------------------
A|--0-x-x-x--0------------------------0-x-x-x----------------------
E|-----------------------------------------------------------------

main riff pt.2                   ,----------,should be pinch harmonics, especially <5>
e|--------------------------------5--------------------------------
B|----------------------------------8p5----------------------------
G|----------/14\--/8\5---7-^8^7-5-------7p<5>----------------------
D|----------/14\--/8\5---7-^8^7-5----------------------------------
A|--0-x-x-x--0-----------------------------------------------------
E|-----------------------------------------------------------------

to verse               let ring
e|-----------------------------------------------------------------
B|-------------------------8---------------------------------------
G|----------/14\--/5-7-8---8---------------------------------------
D|----------/14\--/5-7-8-------------------------------------------
A|--0-x-x-x--0-----------------------------------------------------
E|-----------------------------------------------------------------

verse (repeat 2x)
   G5 A5
e|----------------------3-----2------
B|------------------------3-----3----
G|--0-2---2-------2---------2-----2--
D|--0-2---2-------2------------------
A|----0-0-0-0-0-0-0-0-0-------------- the last part of that varies slightly (i'm not sure it's right anyway)
E|----------------------------------- repeat 3x
 
       C5        D5
e|-------------------------------------
B|-------------------------------------
G|--7-6-5-5-5-4-5-7-7-7-7-7-7----------
D|--7-6-5-5-5-4-5-7-7-7-7-7-7----------
A|----------------5-5-5-5-5-5---------- 
E|------------------------------------- 
[ Tab from: http://www.guitartabs.cc/tabs/m/misc_computer_games/sonic_adventure_open_your_heart_tab.html ]
bridge:
 
e|---------------------------------------------------------
B|---------------------------------------------------------
G|---------------------------------------------------------
D|-----3--------------------------5------------------------
A|---3--------------------------5--------------0---3-2-----
E|-1----------------0-1-0-1-2-3--------------3---3----<3>--

                                             
  F5                          G5       E5
e|---------------------------------------------------------
B|---------------------------------------------------------
G|---------------------------------------------------------
D|-----3--------------------------5----2-------------------
A|---3--------------------------5------2---------0-2-------
E|-1------------------1-0-1-2-3--------0---0-4-4-----------

just palm muted 8th-note power chords for this part:
F5                                 G5
You and I are same in the way that we have our own styles that we won't change
F5                                        G5               E5...(see following tab)
Yours is filled with evil and mine's not, there is no way I can lose

    E5    G#5 A5  B5  D5 Eb5 E5
e|-------------------------------------
B|-------------------------------------
G|-------------------------------------
D|--2---2-------------7-7-8-9----------
A|--2---2-6-6-7-7-9-9-5-5-6-7---------- 
E|--0---0-4-4-5-5-7-7------------------ 

chorus
   G5  A5                           D/F#            D
count:1 & 2 & 3 & 4 & 1 & 2 & 3 & 4 & 1 & 2 & 3 & 4 & 1 & 2 & 3 & 4 & (..if you want)
e|--------------------------------------------------------------------
B|--------------------------------------------------7-----7---7-------
G|--0---2---2---2---2---2---2---2-------------------7-----7---7-------
D|--0---2---2---2---2---2---2---2-------------0-----7-----7---7-------
A|------0-x-0-x-0-x-0-x-0-x-0-x-0---------0---------5-----5---5-------
E|----------------------------------2--------------------------------- repeat 4x

  F5               G5     
e|------------------------------
B|------------------------------
G|------------------------------
D|-3-3-------------5---5-5------
A|-3-3-------------5---5-5------
E|-1-1-------0-1-2-3---3-3------ 

main riff
e|-----------------------------------------------------------------
B|-----------------------------------------------------------------
G|----------/14\--/8\5---7-^8^7-5-7-----------5--------------------
D|----------/14\--/8\5---7-^8^7-5-7-----------5--------------------
A|--0-x-x-x--0------------------------0-x-x-x----------------------
E|-----------------------------------------------------------------

to verse (variation)   
e|---------------------------------------
B|---------------------------------------
G|----------/14\--/8\5---7---8---9-------
D|----------/14\--/8\5---7---8---9-------
A|--0-x-x-x--0-----------5---6---7-------
E|---------------------------------------

repeat, but there's a solo after the next chorus that, well.. if you can play it, you can
probably figure it out from the song, too :) (i can't, partly because my guitar has no whammy bar)
after that it follows the same pattern basically.
Comments