Misc Computer Games - Sonic Adventure 2 - Live And Learn Chords & Tabs

 

Sonic Adventure 2 - Live And Learn Chords & Tabs

Misc Computer Games Chords & Tabs

Version: 2 Type: Tab 0 ratings
1 star 2 stars 3 stars 4 stars 5 stars
comments

Sonic Adventure 2 - Live And Learn Tab

   
-------------------------------------------------------------------------------
			          LIVE AND LEARN - Jun Senoue
-------------------------------------------------------------------------------
Tabbed by: ygokazuki
Email: ygokazuki@gmail.com

Tuning: Standard (E A D G B E)

Intro pt. 1
e|----------------------------------------------------------|
B|----------------------------------------------------------|
G|-6-6--9--9/11---------9--9/11--------9--9/11---13-12-11-9-|
D|-6-6--9--9/11---------9--9/11---2-2--9--9/11---13-12-11-9-|
A|-4-4--7--7/-9---0--0--7--7/-9---2-2--7--7/-9---11-10--9-7-|
E|--------------------------------0-0-----------------------|
pm X X				  X X

Intro pt. 2 (* = pinch harmonics, one octave up)
e|--------------------------|
B|--------------------------|
G|-----*-----*-----*---*-*--|
D|-----9-----9-----9---9/11-|
A|--------------------------|
E|-9-9---9-9---9-9---9------|
pm X X   X X   X X   X

First Verse pt. 1
Lead
e|--------------------------------------------------------------|
B|--------------------------------------------------------------|
G|--------------------------------------------------------2-2p1-|
D|--------------------------------------------------------------|
A|--------------------------------------------------------------|
E|--------------------------------------------------------------|
Rhythm
e|--------------------------------------------------------------|
B|--------------------------------------------------------------|
G|-----6-----6-----6-----6-----6------2-----2-----2-----2-----2-|
D|-6-6-6-6-6-6-6-6-6-6-6-6-6-6-6--2-2-2-2-2-2-2-2-2-2-2-2-2-2-2-|
A|-4-4-4-4-4-4-4-4-4-4-4-4-4-4-4--0-0-0-0-0-0-0-0-0-0-0-0-0-0-0-|
E|--------------------------------------------------------------|
pm X X   X X   X X   X X   X X    X X   X X   X X   X X   X X

First Verse pt. 1 ctd.
Lead
e|-------------------------------|
B|-------------------------------|
G|-------------------------2-2p1-|
D|-------------------------------|
A|-------------------------------|
E|-------------------------------|
Rhythm
e|-------------------------------|
B|-------------------------------|
G|-------------------------------|
D|-----2-----2-----2-----2-----2-|
A|-2-2-2-2-2-2-2-2-2-2-2-2-2-2-2-|
E|-0-0-0-0-0-0-0-0-0-0-0-0-0-0-0-|
pm X X   X X   X X   X X   X X

First Verse pt. 2 (the second time, both guitars play this)
e|-------------------|
B|-------------------|
G|-------------------|
D|-4/6--4/6--6-5-4-2-|
A|-4/6--4/6--6-5-4-2-|
E|-2/4--2/4--4-3-2-0-|

First Verse pt. 3 (both guitars)
e|--------------------|
B|--------------------|
G|--------------------|
D|-4/6--4/6--6-4-5-6/-|
A|-4/6--4/6--6-4-5-6/-|
E|-2/4--2/4--4-2-3-4/-|

First Pre-Chorus pt. 1 (two guitars)
Lead
e|---------------------------------------------------|
B|---------------------------------------------------|
G|-2:---------------4:---------------6:--------------|
D|-2:---------------4:---------------6:--------------|
A|-0:---------------2:---------------4:--------------|
E|---------------------------------------------------|
Rhythm
e|---------------------------------------------------|
B|---------------------------------------------------|
G|-----2-----2---2------4-----4---4------6-----6---6-|
D|-2-2-2-2-2-2-2-2--4-4-4-4-4-4-4-4--6-6-6-6-6-6-6-6-|
A|-0-0-0-0-0-0-0-0--2-2-2-2-2-2-2-2--4-4-4-4-4-4-4-4-|
E|---------------------------------------------------|
pm X X   X X   X    X X   X X	X	 X X   X X   X

First Pre-Chorus pt. 2
Lead (you can play this in octaves as shown, or use only the bottom notes)
e|---------------|
B|---------------|
G|----------2--4-|
D|-2-2-4-6--x--x-|
A|-x-x-x-x--0--2-|
E|-0-0-2-4-------|
Rhythm
e|---------------|
B|---------------|
G|---------------|
D|-2---4-6:------|
A|-2---4-6:------|
E|-0---2-4:------|

First Pre-Chorus pt. 3 (lead and rhythm guitar both play this)
(you can play this in octaves as shown, or use powerchords)
e|----------|
B|----------|
G|-5---7-9\-|
D|-x---x-x\-|
A|-3---5-7\-|
E|----------|

First Pre-Chorus pt. 4 (lead and rhythm guitar both play this)
e|------------------------------------------------------------|
B|------------------------------------------------------------|
G|-----2-----2---2-----2-----2---2-----5-----5---5----5-5-7-7-|
D|-2-2-2-2-2-2-2-2-2-2-2-2-2-2-2-2-5-5-5-5-5-5-5-5-5--5-5-7-7-|
A|-0-0-0-0-0-0-0-0-0-0-0-0-0-0-0-0-3-3-3-3-3-3-3-3-3--3-3-5-5-|
E|------------------------------------------------------------|
pm X X   X X   X   X X   X X   X   X X   X X   X   X  

First Pre-Chorus pt. 5 (lead guitar only) 
(* = pinch harmonics, two different pitches)
e|-9--9-|
B|-*--*-|
G|------|
D|------|
A|------|
E|------|

Chorus (rhythm and lead guitars alternate rhythm figures and riffs)
  |-Rhythm Guitar-| |---------Lead Guitar---------|
e|---------------------------------------------------|
B|---------------------------------------------------|
G|-6-6--9--9/11------------4--4---------4-3----------|
D|-6-6--9--9/11--7:----4-6------7-6----------4-------|
A|-4-4--7--7/-9--7:-------------------4--------4-6---|
E|---------------5:--4--------------2----------------|

Chorus ctd.
  |-Rhythm Guitar-| |-Lead Guitar-| |---both---|
e|-----------------------------------------------|
B|-----------------------------------------------|
G|-6-6--9--9/11------------4--4-6-4--5--5--6--8\-|
D|-6-6--9--9/11--7:----4-6-----------5--5--6--8\-|
A|-4-4--7--7/-9--7:------------------3--3--4--6\-|
E|---------------5:--4---------------------------|

Post-Chorus
e|----------------------------------------------|
B|----------------------------------------------|
G|-9-6--4-6-4--2-2:--4-4:-----------------------|
D|-9-6--4-6-4--2-2:--4-4:--4/-------------------|
A|-7-4--2-4-2--0-0:--2-2:--4/(random glissando)-|
E|-------------------------2/-------------------|

Pre-Verse (parentheses = pinch harmonics up one octave)
e|-----------------------------------------|
B|-----------------------------------------|
G|-----------------------------------------|
D|----(9/11)---(13/14)---(9/11)---(13b(14))|
A|-----------------------------------------|
E|-9-9------9-9-------9-9------9-9---------|

Second Verse pt. 1
Lead
e|--------------------------------------------------------------|
B|--------------------------------------------------------------|
G|--------------------------------------------------------2-2p1-|
D|--------------------------------------------------------------|
A|--------------------------------------------------------------|
E|--------------------------------------------------------------|
Clean Lead Fills (with reverb)
e|-------------------7:-----------------------------7:----------|
B|-----------------5------------------------------5-------------|
G|---------------6----------------------------------------------|
D|----------------------------------------------7---------------|
A|--------------------------------------------------------------|
E|--------------------------------------------------------------|
Rhythm
e|--------------------------------------------------------------|
B|--------------------------------------------------------------|
G|-----6-----6-----6-----6-----6------2-----2-----2-----2-----2-|
D|-6-6-6-6-6-6-6-6-6-6-6-6-6-6-6--2-2-2-2-2-2-2-2-2-2-2-2-2-2-2-|
A|-4-4-4-4-4-4-4-4-4-4-4-4-4-4-4--0-0-0-0-0-0-0-0-0-0-0-0-0-0-0-|
E|--------------------------------------------------------------|
pm X X   X X   X X   X X   X X    X X   X X   X X   X X   X X

Second Verse pt. 1 ctd.
Lead
e|-------------------------------|
B|-------------------------------|
G|-------------------------2-2p1-|
D|-------------------------------|
A|-------------------------------|
E|-------------------------------|
Clean Lead Fills (with reverb)
e|-------------------7:----------|
B|-----------------5-------------|
G|---------------6---------------|
D|-------------------------------|
A|-------------------------------|
E|-------------------------------|
Rhythm
e|-------------------------------|
B|-------------------------------|
G|-------------------------------|
D|-----2-----2-----2-----2-----2-|
A|-2-2-2-2-2-2-2-2-2-2-2-2-2-2-2-|
E|-0-0-0-0-0-0-0-0-0-0-0-0-0-0-0-|
pm X X   X X   X X   X X   X X
[ Tab from: http://www.guitartabs.cc/tabs/m/misc_computer_games/sonic_adventure_2_live_and_learn_tab_ver_2.html ]
Second Verse pt. 2
Clean Lead Fills (with reverb)
e|-----5:---4\--|
B|---5----------|
G|-4------------|
D|--------------|
A|--------------|
E|--------------|
Lead and Rhythm
e|--------------|
B|--------------|
G|--------------|
D|-4/6--4/6--6:-|
A|-4/6--4/6--6:-|
E|-2/4--2/4--4:-|

Second Pre-Chorus pt. 1
Overdriven Lead Fills
e|---------------------------------------------------|
B|---------------------------------------------------|
G|--8\2~------------9\4~-------------11\6~-----------|
D|---------------------------------------------------|
A|---------------------------------------------------|
E|---------------------------------------------------|
Lead
e|---------------------------------------------------|
B|---------------------------------------------------|
G|-2:---------------4:---------------6:--------------|
D|-2:---------------4:---------------6:--------------|
A|-0:---------------2:---------------4:--------------|
E|---------------------------------------------------|
Rhythm
e|---------------------------------------------------|
B|---------------------------------------------------|
G|-----2-----2---2------4-----4---4------6-----6---6-|
D|-2-2-2-2-2-2-2-2--4-4-4-4-4-4-4-4--6-6-6-6-6-6-6-6-|
A|-0-0-0-0-0-0-0-0--2-2-2-2-2-2-2-2--4-4-4-4-4-4-4-4-|
E|---------------------------------------------------|
pm X X   X X   X    X X   X X	X	 X X   X X   X

Second Pre-Chorus pt. 2
Overdriven Lead Fills
e|---------------|
B|---------------|
G|-8~:-----------|
D|---------------|
A|---------------|
E|---------------|
Lead (you can play this in octaves as shown, or use only the bottom notes)
e|---------------|
B|---------------|
G|----------2--4-|
D|-2-2-4-6--x--x-|
A|-x-x-x-x--0--2-|
E|-0-0-2-4-------|
Rhythm
e|---------------|
B|---------------|
G|---------------|
D|-2---4-6:------|
A|-2---4-6:------|
E|-0---2-4:------|

Second Pre-Chorus pt. 3
Overdriven Lead Fills
e|----------|
B|----------|
G|-8~:------|
D|----------|
A|----------|
E|----------|
Lead and Rhythm
(you can play this in octaves as shown, or use powerchords)
e|----------|
B|----------|
G|-5---7-9\-|
D|-x---x-x\-|
A|-3---5-7\-|
E|----------|

Second Pre-Chorus pt. 4
Overdriven Lead Fills
e|------------------------------------------------------------|
B|------------------------------------------------------------|
G|-6\2~----------------------------8\4~-----------------------|
D|------------------------------------------------------------|
A|------------------------------------------------------------|
E|------------------------------------------------------------|
Lead and Rhythm
e|------------------------------------------------------------|
B|------------------------------------------------------------|
G|-----2-----2---2-----2-----2---2-----5-----5---5----5-5-7-7-|
D|-2-2-2-2-2-2-2-2-2-2-2-2-2-2-2-2-5-5-5-5-5-5-5-5-5--5-5-7-7-|
A|-0-0-0-0-0-0-0-0-0-0-0-0-0-0-0-0-3-3-3-3-3-3-3-3-3--3-3-5-5-|
E|------------------------------------------------------------|
pm X X   X X   X   X X   X X   X   X X   X X   X   X

Second Pre-Chorus pt. 5 
E|-6b(7)-6b(7)-6b(7)-6b(7)-|
B|-------------------------|
G|-------------------------|
D|-------------------------|
A|-------------------------|
E|-------------------------|

(now there's a guitar solo...which I have no idea how to play)

Third Pre-Chorus (still MORE lead fills...)
Overdriven Lead Fills
e|---------------------------------------------------|
B|---------------------------------------------------|
G|-----------------------------------------------5:--|
D|---------------------------------------------------|
A|---------------------------------------------------|
E|---------------------------------------------------|
Lead
e|---------------------------------------------------|
B|---------------------------------------------------|
G|-2:---------------4:---------------6:--------------|
D|-2:---------------4:---------------6:--------------|
A|-0:---------------2:---------------4:--------------|
E|---------------------------------------------------|
Rhythm
e|---------------------------------------------------|
B|---------------------------------------------------|
G|-----2-----2---2------4-----4---4------6-----6---6-|
D|-2-2-2-2-2-2-2-2--4-4-4-4-4-4-4-4--6-6-6-6-6-6-6-6-|
A|-0-0-0-0-0-0-0-0--2-2-2-2-2-2-2-2--4-4-4-4-4-4-4-4-|
E|---------------------------------------------------|
pm X X   X X   X    X X   X X   X    X X   X X   X

Third Pre-Chorus pt. 2
Overdriven Lead Fills
e|---------------|
B|---------------|
G|-7~:-----------|
D|---------------|
A|---------------|
E|---------------|
Lead (you can play this in octaves as shown, or use only the bottom notes)
e|---------------|
B|---------------|
G|----------2--4-|
D|-2-2-4-6--x--x-|
A|-x-x-x-x--0--2-|
E|-0-0-2-4-------|
Rhythm
e|---------------|
B|---------------|
G|---------------|
D|-2---4-6:------|
A|-2---4-6:------|
E|-0---2-4:------|

Third Pre-Chorus pt. 3
Overdriven Lead Fills
e|-----------------------------------19b(20)-19b(20)-|
B|---------------------------------------------------|
G|---------------------------------------------------|
D|---------------------------------------------------|
A|---------------------------------------------------|
E|---------------------------------------------------|
Lead
e|---------------------------------------------------|
B|---------------------------------------------------|
G|-2:---------------4:---------------6:--------------|
D|-2:---------------4:---------------6:--------------|
A|-0:---------------2:---------------4:--------------|
E|---------------------------------------------------|
Rhythm
e|---------------------------------------------------|
B|---------------------------------------------------|
G|-----2-----2---2------4-----4---4------6-----6---6-|
D|-2-2-2-2-2-2-2-2--4-4-4-4-4-4-4-4--6-6-6-6-6-6-6-6-|
A|-0-0-0-0-0-0-0-0--2-2-2-2-2-2-2-2--4-4-4-4-4-4-4-4-|
E|---------------------------------------------------|
pm X X   X X   X    X X   X X   X    X X   X X   X

Third Pre-Chorus pt. 4 (lead and rhythm guitar both play this)
e|------------------------------------------------------------|
B|------------------------------------------------------------|
G|-----2-----2---2-----2-----2---2-----5-----5---5----5-5-7-7-|
D|-2-2-2-2-2-2-2-2-2-2-2-2-2-2-2-2-5-5-5-5-5-5-5-5-5--5-5-7-7-|
A|-0-0-0-0-0-0-0-0-0-0-0-0-0-0-0-0-3-3-3-3-3-3-3-3-3--3-3-5-5-|
E|------------------------------------------------------------|

Third Pre-Chorus pt. 5
e|-8---8---6---6---|
B|---8---8---6---6-|
G|-----------------|
D|-----------------|
A|-----------------|
E|-----------------|

Out-Chorus
e|-----------------------------------------------|
B|-----------------------------------------------|
G|----------6-6--9--9/11-----------------1-2-4-2-|
D|-sc-------6-6--9--9/11--7----------2-4---------|
A|----ra----4-4--7--7/-9--7------2-4-------------|
E|-------pe---------------5--2-4-----------------|

e|--------------------------------------|
B|--------------------------------------|
G|-6-6--9--9/11-----------------1-2-4-6-|
D|-6-6--9--9/11--7----------2-4---------|
A|-4-4--7--7/-9--7------2-4-------------|
E|---------------5--2-4-----------------|

Outro
(* = pinch harmonics, 1 octave up)
e|-----------------------------------------|
B|-----------------------------------------|
G|-----*-----*-----*---*-*-----------------|
D|-----9-----9-----9---9/11----------2-4---|
A|-------------------------------2-4-----4-|
E|-9-9---9-9---9-9---9-------2-4-----------|

Now for the order.  Let me tell you, this is a rather complex song!
Intro pt. 1 (x2)
Intro pt. 2

First Verse pt. 1 (rhythm only)
First Verse pt. 2 (rhythm only)
First Verse pt. 1
First Verse pt. 3

First Pre-Chorus pt. 1
First Pre-Chorus pt. 2
First Pre-Chorus pt. 1
First Pre-Chorus pt. 3
First Pre-Chorus pt. 1
First Pre-Chorus pt. 2
First Pre-Chorus pt. 4
First Pre-Chorus pt. 5

Chorus (x2)

Post-Chorus

Pre-Verse

Second Verse pt. 1
Second Verse pt. 2

Second Pre-Chorus pt. 1
Second Pre-Chorus pt. 2
Second Pre-Chorus pt. 1
Second Pre-Chorus pt. 3
Second Pre-Chorus pt. 1
Second Pre-Chorus pt. 2
Second Pre-Chorus pt. 4
Second Pre-Chorus pt. 5

Chorus (x2)

Post-Chorus

(now the solo...which I don't know how to play)

Third Pre-Chorus pt. 1
Third Pre-Chorus pt. 2
Third Pre-Chorus pt. 1
Third Pre-Chorus pt. 3
Third Pre-Chorus pt. 1
Third Pre-Chorus pt. 2
Third Pre-Chorus pt. 4
Third Pre-Chorus pt. 5

Chorus (x2)

Out-Chorus (x2)

Intro pt. 1 (x2)

Outro

Enjoy!

| /  slide up
| \  slide down
| h  hammer-on
| p  pull-off
| ~  vibrato
| +  harmonic
| x  Mute note
===============================================================================
Comments