Misc Computer Games - Sonic Adventure 2 - Live And Learn Chords & Tabs

 

Sonic Adventure 2 - Live And Learn Chords & Tabs

Misc Computer Games Chords & Tabs

Version: 1 Type: Tab 0 ratings
1 star 2 stars 3 stars 4 stars 5 stars
comments

Sonic Adventure 2 - Live And Learn Tab

Intro
|------------------------------------------|
|--------5----5/7---------5----5/7---------|
|--------4----4/6---------4----4/6---------|
|------------------------------------------|
|--4-4-----4---------0-0----0--------------|
|------------------------------------------|

|------------------------------------------|
|--------5-----5/7-------------------------|
|--------4-----4/6-------------------------|
|--------------------------6---5--4--2-----|  x2
|--------------------------6---5--4--2-----|
|---0-0-----0--------------4---3--2--0-----|

Then do this..
|------------------------------------------|
|--------4-------4-------4-----4h6---------|
|------------------------------------------|
|------------------------------------------|
|---4-4-----4-4----4-4----4----------------|
|------------------------------------------|

Verse
|----7-7-----7------7------------------|
|-----7-7---7-7------7-7-7-5-5-5-4-4-5-|
|--------------------------------------|
|--------------------------------------|
|--------------------------------------|
|--------------------------------------|

|-------------------------------------------|
|-------------------------------------------|
|-------------------------------------------|
|--6--5--4--2-------------------------------|
|--6--5--4--2-------------------------------|
|--4--3--2--0-------------------------------|

Prechorus
|-----------------------------------------------|
|-----------------------------------------------|
|----------------------9------------------------|
|--7---------9---------9-(x8)---2--------5------|
|--7-(x8)----9-(x8)----7--------2-(x2)---5-(x2)-|
|--5---------7------------------0--------3------|
[ Tab from: http://www.guitartabs.cc/tabs/m/misc_computer_games/sonic_adventure_2_live_and_learn_tab.html ]
Chorus
|---------------------------------------------|
|------5-----5/7------------------------------|
|------4-----4/6--------9---6-----------------|
|-----------------------9---6-----------------|
|-4-4-----4-------------7---4-----------------|
|---------------------------------------------|

|--------------------------------------------|
|--------------------------------------------|
|-----------4--4--------------4-3------------|
|------4-6-------7-6------------------4------|
|--------------------------4------------2/4--|
|-----4------------------2-------------------|

|---------------------------------------------|
|------5-----5/7------------------------------|
|------4-----4/6--------9---6-----------------|
|-----------------------9---6-----------------|
|-4-4-----4-------------7---4-----------------|
|---------------------------------------------|

|---------------------------------------------|
|---------------------------------------------|
|----------4--4-6-4------5--5----6----8-------|
|-----4-6----------------5--5----6----8-------| x2
|------------------------3--3----4----6-------|
|----4---------------------------------------|

Then do this...
|---------------------------------------------|
|---------------------------------------------|
|--9--6-----4--6--4---2~---4--4---------------|
|--7--6-----4--6--4---2~---4--4---------------|
|--7--4-----2--4--2---0~---2--2---------------|
|---------------------------------------------|

|------------------------------------------|
|---------------------5----------------5---|
|--------4h6--------4--------4h6-----------|
|------------------------------------------|
|---4-4---------4-4-----4-4-------4-4------|
|------------------------------------------|

That's it. Go here for the song: 
http://www.ecst.csuchico.edu/~meli/gmusic/
Then search for sonic an it should be there.
The Prechorus I know is totally wrong but
It's something you can do. The verse also
Is not fully right. Sorry for any 
obvious mistakes that were in there. When
you submit a tab it kinda messed it up
so you hav to revise it an i probably
missed it.
Comments