Misc Computer Games - Silent Hill 3 - Youre Not Here Chords & Tabs

 

Silent Hill 3 - Youre Not Here Chords & Tabs

Misc Computer Games Chords & Tabs

Version: 1 Type: Tab 0 ratings
1 star 2 stars 3 stars 4 stars 5 stars
comments

Silent Hill 3 - Youre Not Here Tab

   
Tabbed by: Toshiro
E-mail: iskateboard4kix@aol.com

  (Main Riff)
Eb|---------------------------------|
Bb|---------------------------------|
Gb|---------------------------------|
Db|-----0-------0-------0-------0---|
Ab|---7---7---7---7---7---7---7---7-|
Eb|-5-------5-------5-------5-------|

Eb|-----------------------------------------|
Bb|-----------------------------------------|
Gb|-----------------------------------------|
Db|------0---------0---------0---------0----|
Ab|---10---10---10---10---10---10---10---10-|
Eb|-8---------8---------8---------8---------|

  Intro (w/Main Riff)
Eb|---------------------------------|
Bb|---------5---------------5-------|
Gb|-----------4---------------4-----|
Db|---5---------------5-------------|
Ab|-5---------------5---------------|
Eb|---------------------------------|

  Rhythm Figure (w/Intro & Main Riff)
Eb|------------------------------------|-------------------------------|
Bb|------------------------------------|-------------------------------|
Gb|------------------------------------|-------------------------------|
Db|------------------------------------|-------------------------------|
Ab|-0----2--3/7----10----12--7----10---|-0----2--3/7---------0---------|
Eb|------------------------------------|----------------3-------0------|

  Main Riff

  Solo 1 (w/Main Riff)
Eb|-----------------------15-------------|
Bb|-----8------------17--------17--------|
Gb|-9-------9----------------------------|
Db|--------------------------------------|
Ab|--------------------------------------|
Eb|--------------------------------------|

Eb|--------------------------------12--0-12--0-12--0-12--0-12--12--|
Bb|-13-----13-----13---13--13--13----------------------------------|
Gb|-12--12-12--12-12---12--12--12----------------------------------|
Db|----------------------------------------------------------------|
Ab|----------------------------------------------------------------|
Eb|----------------------------------------------------------------|

  (Rhythm Figure 3)
Eb|-------------------------|----------------------------|
Bb|-------------------------|----------------------------|
Gb|-7-----5-----7-----5-----|-7-----5-----4--------4--4--|
Db|-7-----5-----7-----5-----|-7-----5-----4--------4--4--|
Ab|-5-----3-----5-----3-----|-5-----3-----2--------2--2--|
Eb|-------------------------|----------------------------|

  Rhythm Figure 2 (w/Rhythm Figure 3)
Eb|----------------------------------------------|
Bb|------------------5---------------------5-----|
Gb|--------------5------5--------------5------5--|
Db|----------5-7------------------5-7------------|
Ab|----5-7-8----------------5-7-8----------------|
Eb|----------------------------------------------|

Eb|----------------------------------------|
Bb|------------------5---------------------|
Gb|--------------5------5---4--------4--4--|
Db|----------5-7------------4--------4--4--|
Ab|----5-7-8----------------2--------2--2--|
Eb|----------------------------------------|

  (Rhythm Figure 5)
Eb|-------------------------------------------------------------------|
Bb|-------------------------------------------------------------------|
Gb|-------------------------------------------------------------------|
Db|-7-w-w-w-9-w-w-w-10-w-w-w-12-w-w-w-7-w-w-w-w-w-w-w-w-w-w-w-w-w-w-w-|
Ab|-7-w-w-w-9-w-w-w-10-w-w-w-12-w-w-w-7-w-w-w-w-w-w-w-w-w-w-w-w-w-w-w-|
Eb|-5-w-w-w-7-w-w-w-8--w-w-w-10-w-w-w-5-w-w-w-w-w-w-w-w-w-w-w-w-w-w-w-|

  Rhythm Figure 4 (w/Rhythm Figure 5)
Eb|---------------------------------|---------------------------------|
Bb|---------------------------------|---------------------------------|
Gb|---------------------------------|---------------------------------|
Db|-----7-------9-------7-------7---|-----7-------9-------7-------7---|
Ab|---7---7---9---9---7---7---7---7-|---7---7---9---9---7---7---7---7-|
Eb|-5-------7-------5-------5-------|-5-------7-------5-------5-------|

Eb|-----------------------------------------------------------------0---|
Bb|-----------------------------------------------------------------0---|
Gb|---------------------------------------------------------------------|
Db|-----7-------9-------7-------7-------7-------9-------3-------2---2---|
Ab|---7---7---9---9---7---7---7---7---7---7---9---9---3---3---2---------|
Eb|-5-------7-------5-------5-------5-------7-------1-------0-----------|
                                                    ritard

  Main Riff (a tempo)
[ Tab from: http://www.guitartabs.cc/tabs/m/misc_computer_games/silent_hill_3_youre_not_here_tab.html ]
  Solo 2 (w/Main Riff)
Eb|-----------------------5-x-5-x-5-x-5-x-5\-x-5-x-5-x-3-x-3-x-3-x-3-x-3\-|
Bb|-x-x-x-8-x-8-x-8-x-8-x-8-x-8-x-8-x-8-x-8\-x-8-x-8-x-6-x-6-x-6-x-6-x-6\-|
Gb|-----------------------------------------------------------------------|
Db|-----------------------------------------------------------------------|
Ab|-----------------------------------------------------------------------|
Eb|-----------------------------------------------------------------------|

Eb|-3-x-3-x-5-x-5-x-5\-x-5-x-5-x-3-x-3-x-3-x-3\/-|
Bb|-6-x-6-x-8-x-8-x-8\-x-8-x-8-x-6-x-6-x-6-x-6\/-|
Gb|----------------------------------------------|
Db|----------------------------------------------|
Ab|----------------------------------------------|
Eb|----------------------------------------------|

Eb|-12-12-12-10-10-10-12-12-12-10-10-10-12-12-12-10-|
Bb|-13-13-13-13-13-13-13-13-13-13-13-13-13-13-13-13-|
Gb|-------------------------------------------------|
Db|-------------------------------------------------|
Ab|-------------------------------------------------|
Eb|-------------------------------------------------|

Eb|-12-12-12-10-10-10-12-12-12-10-10-10-12-12-12-10-|
Bb|-13-13-13-13-13-13-13-13-13-13-13-13-13-13-13-13-|
Gb|-------------------------------------------------|
Db|-------------------------------------------------|
Ab|-------------------------------------------------|
Eb|-------------------------------------------------|

Eb|------------------------------------------|
Bb|-5---6---3---5---1---5-6-8---6---5-----1--|
Gb|------------------------------------------|
Db|------------------------------------------|
Ab|------------------------------------------|
Eb|------------------------------------------|

Eb|---------------------------------------|
Bb|-5---6---3---5---1---5-6-8---6---5---/-|
Gb|---------------------------------------|
Db|---------------------------------------|
Ab|---------------------------------------|
Eb|---------------------------------------|

Eb|-12-12-12-10-10-10-12-12-12-10-10-10-12-12-12-10-|
Bb|-13-13-13-13-13-13-13-13-13-13-13-13-13-13-13-13-|
Gb|-------------------------------------------------|
Db|-------------------------------------------------|
Ab|-------------------------------------------------|
Eb|-------------------------------------------------|

Eb|-12-12-12-10-10-10-12-12-12-10-10-10-12-12-12-10-|
Bb|-13-13-13-13-13-13-13-13-13-13-13-13-13-13-13-13-|
Gb|-------------------------------------------------|
Db|-------------------------------------------------|
Ab|-------------------------------------------------|
Eb|-------------------------------------------------|

Eb|-8-8-8-8-8-8-8-8-8-8-8-8-8-8-8-8-7-7-7-7-7-7-8-8-8-8-8-8-8-8-8-8-|
Bb|-----------------------------------------------------------------|
Gb|-----------------------------------------------------------------|
Db|-----------------------------------------------------------------|
Ab|-----------------------------------------------------------------|
Eb|-----------------------------------------------------------------|

Eb|-10-10-10-10-10-10-10-10-10-10-10-10-10-10-10-10-|
Bb|-------------------------------------------------|
Gb|-------------------------------------------------|
Db|-------------------------------------------------|
Ab|-------------------------------------------------|
Eb|-------------------------------------------------|

Eb|-12-12-12-12-12-12-13-13-13-13-13-13-13-13-13-13\-|
Bb|--------------------------------------------------|
Gb|--------------------------------------------------|
Db|--------------------------------------------------|
Ab|--------------------------------------------------|
Eb|--------------------------------------------------|

Eb|-x-5-x-5-x-5-x-5-x-5\-x-5-x-5-x-8-x-8-x-8-x-8-x-8-|
Bb|-x-5-x-5-x-5-x-5-x-5\-x-5-x-5-x-8-x-8-x-8-x-8-x-8-|
Gb|--------------------------------------------------|
Db|--------------------------------------------------|
Ab|--------------------------------------------------|
Eb|--------------------------------------------------|

Eb|-x-5-x-5-x-5-x-5-x-5\-x-5-x-5-x-8-x-8-x-8-x-8-x-8-|
Bb|-x-5-x-5-x-5-x-5-x-5\-x-5-x-5-x-8-x-8-x-8-x-8-x-8-|
Gb|--------------------------------------------------|
Db|--------------------------------------------------|
Ab|--------------------------------------------------|
Eb|--------------------------------------------------|

Eb|------------------------------------------|
Bb|-5---6---3---5---1---5-6-8---6---5-----1--|
Gb|------------------------------------------|
Db|------------------------------------------|
Ab|------------------------------------------|
Eb|------------------------------------------|

Eb|---------------------------------------|
Bb|-5---6---3---5---1---5-6-8---6---5---/-|
Gb|---------------------------------------|
Db|---------------------------------------|
Ab|---------------------------------------|
Eb|---------------------------------------|
                                     The rest is too faded to hear.

Legend:
/ - upslide
\ - downslide
w - whammy bar
x - muted note
Comments