Misc Computer Games - Legend Of Zelda - Lost Woods Chords & Tabs

 

Legend Of Zelda - Lost Woods Chords & Tabs

Misc Computer Games Chords & Tabs

Version: 1 Type: Tab 0 ratings
1 star 2 stars 3 stars 4 stars 5 stars
comments

Legend Of Zelda - Lost Woods Tab

   
                                LOST WOODS

Music by Kondo Koji
Transcribed by Daniel Kvarfordt

Tuning: E A D G B E

|---------------|-----------------|----------------|---------------|
|---------------|-----------------|----------------|---------------|
|---------------|-------9-7-------|----------------|---------------|
|---7-9----7-9--|---7-9------9-10-|-9--------------|---------------|
|-8------8------|-8---------------|---10-7---------|-7-10-7--------|
|---------------|-----------------|-------------10-|---------------|

[ Tab from: http://www.guitartabs.cc/tabs/m/misc_computer_games/legend_of_zelda_lost_woods_tab.html ]
|---------------|-----------------|-----------------|----------------|
|---------------|-----------------|-----------------|----------------|
|---------------|-------9-7-------|-9---------------|----------------|
|---7-9----7-9--|---7-9------9-10-|---10---------10-|----------------|
|-8------8------|-8---------------|------10---------|-10----7--------|
|---------------|-----------------|-----------------|----10----------|


|-----------------|---------------|-----------------|---------------|
|-----------------|---------------|-----------------|---------------|
|-----------------|---------------|-----------------|----7-9--------|
|------------7-9--|-10-9----------|------------7-9--|-10------------|
|----7-8--10------|------7--------|----7-8--10------|---------------|
|-10--------------|---------------|-10--------------|---------------|


|-----------------|---------------|
|-----------------|---------------|
|-----------------|---------------|
|------------7-9--|-10-9----------|
|----7-8--10------|------7--------|
|-10--------------|---------------|


|--------------------|----------------------|------*|
|--------------------|----------------------|------*|
|--------------------|----------7----9h10-7-|-9----*|
|---------------7----|-9-7-10-9---10--------|------*|
|-7----8-7-10-8---10-|----------------------|------*|
|---10---------------|----------------------|------*|

h - hammer-on
Comments