Misc Computer Games - Legend Of Zelda - Kakariko Village Chords & Tabs

 

Legend Of Zelda - Kakariko Village Chords & Tabs

Misc Computer Games Chords & Tabs

Version: 2 Type: Tab 0 ratings
1 star 2 stars 3 stars 4 stars 5 stars
comments

Legend Of Zelda - Kakariko Village Tab

Ok the other Kakariko Village is the main thing this is the background music type of thing.
[ Tab from: http://www.guitartabs.cc/tabs/m/misc_computer_games/legend_of_zelda_kakariko_village_tab_ver_2.html ]
|----2-------1-------3-------1----|
|---3-3-----1-1-----3-3-----1-1---|
|--2---2---2---2---0---0---2---2--|
|-0-------3-------0-------3-------|
|---------------------------------|
|---------------------------------|x4

|------------------------------|
|---3-3----1-1----3-3----1-1---|
|--2-2-2--2-2-2--0-0-0--2-2-2--|
|-0------3------0------3-------|
|------------------------------|
|------------------------------|x2

just listen to the song and you'll get it fine if i did it right.
Comments