Misc Computer Games - Legend Of Zelda - Gerudo Valley Chords & Tabs

 

Legend Of Zelda - Gerudo Valley Chords & Tabs

Misc Computer Games Chords & Tabs

Version: 2 Type: Tab 0 ratings
1 star 2 stars 3 stars 4 stars 5 stars
comments

Legend Of Zelda - Gerudo Valley Tab

the intro is really hard to play, so i didnt figure out the tabs...u probably need 2
guitars to play it or fast fingers.

Guitar 2 Backgroung
|-2-2-2-2-2-2-2-2-|-2-2-2-2-2-2-2-2-|-0-0-0-0-0-0-0-0-|-1-1-1-1-1-1-1-1-| 
|-2-2-2-2-2-2-2-2-|-3-3-3-3-3-3-3-3-|-0-0-0-0-0-0-0-0-|-2-2-2-2-2-2-2-2-|
|-2-2-2-2-2-2-2-2-|-2-2-2-2-2-2-2-2-|-1-1-1-1-1-1-1-1-|-1-1-1-1-1-1-1-1-|
|-----------------|-----------------|-----------------|-----------------|
|-----------------|-----------------|-----------------|-----------------|
|-----------------|-----------------|-----------------|-----------------|

Guitar 1 Melody 
|---2-4-5---2-4-5-|---2-4-5---2-4-5-|---0-2-4---0-2-4-|-2-4-2-1--|
|-2-------2-------|-3-------3-------|-0-------0-------|----------|
|-----------------|-----------------|-----------------|----------|
|-----------------|-----------------|-----------------|----------|
|-----------------|-----------------|-----------------|----------|
|-----------------|-----------------|-----------------|----------|

|---2-4-5---2-4-5-|---2-4-5---2-4-5-|---0-2-4---0-2-4-|-5-7-5-4--| 
|-2-------2-------|-3-------3-------|-0-------0-------|----------| 
|-----------------|-----------------|-----------------|----------| 
|-----------------|-----------------|-----------------|----------| 
|-----------------|-----------------|-----------------|----------|
|-----------------|-----------------|-----------------|----------|

|---5-4-2-|---0-0h2p0---|---4-2-0-|-------------|
|-2-------|-2---------3-|-0-------|-2-3-3h5p3-2-|
|---------|-------------|---------|-------------|
|---------|-------------|---------|-------------|
|---------|-------------|---------|-------------|
|---------|-------------|---------|-------------|

|---5-4-2-|---0-0h2p0---|-----2-0-----|
|-2-------|-2---------3-|---0-0-0-3-2-|
|---------|-------------|-2-------1-1-|
|---------|-------------|-4-----------|
|---------|-------------|-------------|
|---------|-------------|-------------|
[ Tab from: http://www.guitartabs.cc/tabs/m/misc_computer_games/legend_of_zelda_gerudo_valley_tab_ver_2.html ]
|-5-4-5-4-----------|-4-2-4-0-------------|
|-----------5-------|---------3-2-3h5p3-2-|
|---------6---7-6-7-|---------------------|
|-------------------|---------------------|
|-------------------|---------------------|
|-------------------|---------------------|

|-----------------|-----------------|-----4-2-----|
|-------2-------2-|-------3-------3-|-3-0-3-2-0-2-|
|---1-2-----1-2---|---1-2-----1-2---|-2-------1-1-|
|-4-------4-------|-4-------4-------|-------------|
|-----------------|-----------------|-------------|
|-----------------|-----------------|-------------|

|-5-4-5---4-5-7-5-4-5-4-5-|-4-2-4---2-4-5-4-2-4-2-1-|
|-------7-----------------|-------5-----------------|
|-------------------------|-------------------------|
|-------------------------|-------------------------|
|-------------------------|-------------------------|
|-------------------------|-------------------------|

|-5-4-5---4-5-7-5-4-5-4-5-|------------------9-10-12-9-10-9-|
|-------7-----------------|-12-10-12-9-10-12----------------|
|-------------------------|---------------------------------|
|-------------------------|---------------------------------|
|-------------------------|---------------------------------|
|-------------------------|---------------------------------|

|-------------------------|------------------0-2--4--1-2--1-|
|-2-0-2---0-2-3-2-0-2-0-2-|-3-2-3-0-2-3---------------|
|-------2-----------------|---------------------------------|
|-------------------------|---------------------------------|
|-------------------------|---------------------------------|
|-------------------------|---------------------------------|

|-----------------|-----------------|-----------------|----------|
|-----------------|-----------------|-----------------|-3h5p3-2--|
|---2-1-2---2-1-2-|---2-1-2---2-1-2-|---4-3-4---4-3-4-|----------|
|-4-------4-------|-0-------0-------|-2-------2-------|----------|
|-----------------|-----------------|-----------------|----------|
|-----------------|-----------------|-----------------|----------|

Just repeat the as many times as you want.

Comments