Misc Computer Games - Jet Grind Radio - Bout The City Chords & Tabs

 

Jet Grind Radio - Bout The City Chords & Tabs

Misc Computer Games Chords & Tabs

Version: 1 Type: Tab 0 ratings
1 star 2 stars 3 stars 4 stars 5 stars
comments

Jet Grind Radio - Bout The City Tab

   
-------------------------------------------------------------------------------
			     Bout the city - The Reps
-------------------------------------------------------------------------------

Tabbed by: Zero is great man
Tuning: Standard(Right) EADGBe
Game: Jet Grind Radio
Song: Bout the city
Artist: The Reps

Intro/Verse: "Oh I can see them run about the town..."
e|------------------------------------|
B|------------------------------------|
G|------------------------------------|
D|-4-4-4-4--6-6-6-6--4-4-4-4--6-6-6-6-|
A|-4-4-4-4--6-6-6-6--4-4-4-4--6-6-6-6-|
E|-2-2-2-2--4-4-4-4--2-2-2-2--4-4-4-4-|

Chorus: "Hey I thought I listen to the music."
e|------------------------|
B|------------------------|
G|------------------------|
D|---4---4--4-4-4-6h-4----|
A|---------------------6h-|
E|-2---2------------------|

Post chorus fill 1:(with distortion)
e|-----------------------------|
B|-----------------------------|
G|-6----------6-6--------------|
D|-6-6/9-9-9--6-6-6/9----------|
A|-4-6/9-9-9--4-4-6/9----------|
E|---4/7-7-7------4/7--p.s.\10-|
[ Tab from: http://www.guitartabs.cc/tabs/m/misc_computer_games/jet_grind_radio_bout_the_city_tab.html ]
Post chorus fill 2: "where's the power, say what?"(W/Distortion)
e|--------------------------------------------------------|
B|--------------------------------------------------------|
G|-----------------------------6-6--3-3-3-3--6-6--3-3-3-3-|
D|-7-7--4-4-4-4--7-7--4-4-4-4--6-6--3-3-3-3--6-6--3-3-3-3-|
A|-7-7--4-4-4-4--7-7--4-4-4-4--4-4--1-1-1-1--4-4--1-1-1-1-|
E|-5-5--2-2-2-2--5-5--2-2-2-2-----------------------------|

Verse fill:"The guys in town, there hanging around..."
e|-----------|
B|-----------|
G|-----------|
D|-4-6h-4----|
A|--------6h-|
E|-----------|

Bridge:
e|-------------------------------------------------|
B|-------------------------------------------------|
G|-4---4---4----4-4-4-4-----------4-4-4-4----------|
D|-4-6-4-6-4-6--4-4-4-4--6-6-6-6--4-4-4-4--6-6-6-6-|
A|-2-6-2-6-2-6--2-2-2-2--6-6-6-6--2-2-2-2--6-6-6-6-|
E|---4---4---4-----------4-4-4-4-----------4-4-4-4-|

Bridge fill:(W/Distortion and played with a really choppy rhythem)
e|------------------------------------------------------|
B|------------------------------------------------------|
G|-6-6-6-6--8-8-8-8--6-6-6-6--8-8-8-8--6-6-6-6--8-8-8-8-|
D|-x-x-x-x--x-x-x-x--x-x-x-x--x-x-x-x--x-x-x-x--x-x-x-x-|
A|-4-4-4-4--6-6-6-6--4-4-4-4--6-6-6-6--4-4-4-4--6-6-6-6-|
E|------------------------------------------------------|

| p.s.  pick scrape(scrape string with pick)
| /  slide up
| \  slide down
| h  hammer-on
| p  pull-off
| ~  vibrato
| +  harmonic
| x  Mute note

That's about it, this may look like a ruff tab, but I'm sure this is pretty
accurate.  I'll be back with more, and possibly a bass tab in the future. Hope
this helps you out.  Enjoy!
===============================================================================
Comments