Misc Computer Games - Halo Theme Chords & Tabs

 

Halo Theme Chords & Tabs

Misc Computer Games Chords & Tabs

Version: 5 Type: Tab 0 ratings
1 star 2 stars 3 stars 4 stars 5 stars
comments

Halo Theme Tab

   
                                   HALO THEME
                         As recorded by Marty O'Donnell
                 (From the 2002 Album HALO: ORIGINAL SOUNDTRACK)


Gtr I (E A D G B E) - 'Choir'
Gtr II (E A D G B E) - 'Cello'
Gtr III (E A D G B E) - 'Strings'
Gtr IV (E A D G B E) - 'Strings'
Gtr V (E A D G B E) - 'Cymbols'
Gtr VI (E A D G B E) - 'Violin'

 Intro
  Q=95
  Em
 4/4
  Gtr I
  W           H     H       Q   Q  Q  Q     Q   H.         W
|----------|-------------|---------------|--------------|-------------|
|----------|-------------|---------------|--------------|-------------|
|----------|-------------|------------2--|--------------|-------------|
|----------|--------2----|--4---5--4-----|--5---4-------|--2----------|
|----------|-------------|---------------|--------------|-------------|
|----------|-------------|---------------|--------------|-------------|
|
| Gtr V
| W           W             W               W              Q    H.
|----------|-------------|---------------|--------------|-------------|
|----------|-------------|---------------|--------------|-------------|
|----------|-------------|---------------|--------------|-------------|
|----------|-^7----------|---------------|--------------|------^7-----|
|----------|-^7----------|---------------|--------------|------^7-----|
|----------|-^0----------|---------------|--------------|------^0-----|
|
| Gtr VI
|                           >
| W          +W            +W              +W             +W
|----------|-------------|---------------|--------------|-------------|
|----------|-------------|---------------|--------------|-------------|
|----------|-------------|---------------|--------------|-------------|
|-2--------|-(2)---------|-(2)-----------|-(2)----------|-(2)---------|
|----------|-------------|---------------|--------------|-------------|
|-0--------|-(0)---------|-(0)-----------|-(0)----------|-(0)---------|


                                          Q=110
  Q  Q  H      Q  Q  Q  Q    +W           Q  Q  Q  Q
|------------|-------------|------------|--------------|
|----2--3----|-2-----2-----|------------|--------------|
|-4----------|----2-----4--|-(4)--------|----------0---|
|------------|-------------|------------|----0--2------|
|------------|-------------|------------|-2------------|
|------------|-------------|------------|--------------|


                                          >
  Q  H.        Q  Q  Q  Q    Q  H.        W          +W           Wx3
|------------|-------------|------------|----------|------------|--------|
|------------|-------------|------------|----------|------------|--------|
|-2----------|----0--------|------------|----------|------------|--------|
|----4-------|-2-----4--2--|-4----------|-2--------|-(2)--------|--------|
|------------|-------------|----5-------|----------|------------|--------|
|------------|-------------|------------|----------|------------|--------|


 Section 1
  Q=130
  N.C.
  Gtr II
  |-3-|           |-3-|           |-3-|            |-3-|     |-3-|  |-3--|
  E E E H    Q    E E E H    Q    E E E  H    Q    E E E  Q  E E E  E  E E
|---------------|---------------|----------------|-------------------------|
|---------------|---------------|----------------|-------------------------|
|---------------|---------------|----------------|-------------------------|
|---------------|---------------|----------------|-------------------------|
|-------7-------|-------9-------|-------10-------|-------12--------12-10-9-|
|-0-0-0---------|-0-0-0---------|-0-0-0----------|-0-0-0-----0-0-0---------|


  |-3-|            |-3--|
  E E E H.         E  E E H.
|---------------|-------------------|
|---------------|-------------------|
|---------------|-------------------|
|---------------|-------------------|
|-------7-------|---------9---------|
|-0-0-0---------|--0--0-0-----------|
|
| Gtr III
| <
| W               +H          Q  Q
|---------------|-------------------|
|-5-------------|-(5)---------7--8--|
|---------------|-------------------|
|---------------|-------------------|
|---------------|-------------------|
|---------------|-------------------|


   |-3-|             |-3-|       |--3--|   |--3--|
   E E E  H.         E E E  Q    E   E E   E   E E
|-----------------|--------------------------------|
|-----------------|--------------------------------|
|-----------------|--------------------------------|
|-----------------|--------------------------------|
|--------10-------|--------12-------12----12--10-9-|
|--0-0-0----------|--0-0-0-------0-----0-----------|
|
|  W                 H           Q         Q
|-----------------|--------------2---------3-------|
|-10--------------|-12---------(12)------(12)------|
|-----------------|--------------------------------|
|-----------------|--------------------------------|
|-----------------|--------------------------------|
|-----------------|--------------------------------|


   |-3--|    |-3-|  |-3-|    |-3--|     |-3--|  |--3--|
   E  E E Q  E E E  E E E    E  E E Q   E  E E  E   E E
|-------------------------|-----------------------------|
|-------------------------|-----------------------------|
|-------------------------|-----------------------------|
|-------------------------|-----------------------------|
|---------7--------10-9-7-|---------9----------12--10-9-|
|--0--0-0----0-0-0--------|--0--0-0-----0--0-0----------|
|
|  W                         H          Q       Q
|-(3)---------------------|-(3)--------(3)-----(3)------|
|-14----------------------|-15---------17------19-------|
|-------------------------|-----------------------------|
|-------------------------|-----------------------------|
|-------------------------|-----------------------------|
|-------------------------|-----------------------------|


   |-3--|      |-3--|  |-3--|    |-3--|     |-3--|  |-3--|
   E  E E  Q   E  E E  E  E E    E  E E  Q  E  E E  E  E E
|-----------------------------|-------------------------------|
|-----------------------------|-------------------------------|
|-----------------------------|-------------------------------|
|-----------------------------|-------------------------------|
|---------10----------12-10-9-|---------12----12---12-10-9----|
|--0--0-0------0--0-0---------|--0--0-0-----0----0------------|
|
|  H           H                 W
|-(3)---------(3)-------------|-(3)---------------------------|
|-20----------22--------------|-24----------------------------|
|-----------------------------|-------------------------------|
|-----------------------------|-------------------------------|
|-----------------------------|-------------------------------|
|-----------------------------|-------------------------------|


    |-3--|    |-3-|        |-3--|     |-3-|  |-3--|
    E  E E q  E E E q      E  E E  q  E E E  E  E E
|----------------------|----------------------------|
|----------------------|----------------------------|
|----------------------|----------------------------|
|----------------------|----------------------------|
|----------7--------9--|----------10--------12-10-9-|
|---0--0-0----0-0-0----|---0--0-0-----0-0-0---------|
|
|   >
|  +W                     +W
|----------------------|----------------------------|
|-(24)-----------------|-(24)-----------------------|
|----------------------|----------------------------|
|----------------------|----------------------------|
|----------------------|----------------------------|
|----------------------|----------------------------|


  |-3-|    |-3-|      |-3-|     |-3-|  |-3--|
  E E E q  E E E q    E E E  q  E E E  E  E E
|-------------------|--------------------------||
|-------------------|--------------------------||
|-------------------|--------------------------||
|-------------------|--------------------------||
|-------7--------9--|-------10--------12-10-9--||
|-0-0-0----0-0-0----|-0-0-0-----0-0-0----------||
|
| W                   W
|-------------------|--------------------------||
|-------------------|--------------------------||
|-------------------|--------------------------||
|-------------------|--------------------------||
|-------------------|--------------------------||
|-------------------|--------------------------||


 Strings Solo 1
   |--3--|         |---3----|            |--3--|           |--3--|  |---3---|
   E E   E q       E    E   E q          E  E  E  q        E  E  E  E  E    E
|-------------------------------------|---------------------------------------|
|-------------------------------------|---------------------------------------|
|-------------------------------------|---------------------------------------|
|-------------------------------------|---------------------------------------|
|----------7------------------9-------|----------10----------------12-10----9-|
|--0-0---0---------0----0---0---------|--0--0--0-----------0--0--0------------|
|
|             |---3---|                  |--3--|  |--3--|  |--3--|
|  E   Q      E  E    E   Q      S  S    E  E  E  E  E  E  E  E  E  E     E
|-------------------------------------|---------------------------------------|
|-12---------12-14---15---------12-15-|-14-12-------------12-14-12------------|
|-------------------------------------|-------14----14-------------14---------|
|-------------------------------------|----------14----14----------------14---|
|-------------------------------------|---------------------------------------|
|-------------------------------------|---------------------------------------|


   |-3--|         |-----3-----|          |--3--|           |--3--|  |--3---|
   E  E E q       E    E      E q        E  E  E  q        E  E  E  E  E   E
|-------------------------------------|----------------------------------------|
|-------------------------------------|----------------------------------------|
|-------------------------------------|----------------------------------------|
|-------------------------------------|----------------------------------------|
|---------7---------------------9-----|----------10----------------12-10---9---|
|--0--0-0---------0----0------0-------|--0--0--0-----------0--0--0-------------|
|
|            |---3---|                   |--3--|  |--3--|  |--3--|  |--3---|
|  Q      E  E  E    E    +E    Q        E  E  E  E  E  E  E  E  E  E  E  +E
|---------------------------------2-3-|--5-------------------------------------|
|-12--------14-15---17---(17)---------|-15-14-15-14-12-17-15-14-12-15-17-(17)--|
|-------------------------------------|----------------------------------------|
|-------------------------------------|----------------------------------------|
|-------------------------------------|----------------------------------------|
|-------------------------------------|----------------------------------------|
   H.                           E E E    W
                                |-3-|    |


   |--3--|          |---3----|             |--3--|          |--3---|  |--3--|
   E  E  E  q       E    E   E  q          E  E  E  q       E   E  E  E  E  E
|---------------------------------------|-------------------------------------|
|---------------------------------------|-------------------------------------|
|---------------------------------------|-------------------------------------|
|---------------------------------------|-------------------------------------|
|-----------7-------------------9-------|----------10----------------12-10--9-|
|--0--0--0----------0----0---0----------|--0--0--0----------0---0--0----------|
|
|  |--3--|          |---3----|  |--3--|    |--3--|          |--3---|  |--3--|
|  E  E  E  Q      +E   +E   E  E  E  E    E  E  E  Q      +E   E  E  E  E  E
|-14-------17-----(17)-(17)-14-17-15-17-|----------17-----(17)----------15-17-|
|----15---------------------------------|-17-15----------------15-17-19-------|
|-------16------------------------------|-------16----------------------------|
|---------------------------------------|-------------------------------------|
|---------------------------------------|-------------------------------------|
|---------------------------------------|-------------------------------------|
|
| Gtr IV
|           |-3-|                                   |-3-|
|  Q        E E E  +Q           Q          Q        E E E  +Q         Q
|-----------3-3-5--(5)------------------|-----------3-3-5--(5)----------------|
|---------------------------------------|-------------------------------------|
|---------------------------------------|-------------------------------------|
|---------------------------------------|-------------------------------------|
|---------------------------------------|-------------------------------------|
|---------------------------------------|-------------------------------------|


   |-3-|         |-----3-----|            |--3--|           |-3--|      |---3----|
   E E E q       E    E      E q          E  E  E  q        E  E E      E   E    E
|--------------------------------------|----------------------------------------------|
|--------------------------------------|----------------------------------------------|
|--------------------------------------|----------------------------------------------|
|--------------------------------------|----------------------------------------------|
|--------7---------------------9-------|----------10-------------------12--10----9----|
|--0-0-0---------0----0------0---------|--0--0--0-----------0--0-0--------------------|
|
|           |---3---|          |--3--|    |--3--|  |--3--|
|  q     E  E  E    E    +E    E  E  E    E  E  E  E  E  E  E.      S  +E      E
|--------------------------------------|----------------------------------------------|
|-17----------17---19---(19)-----17-19-|-20-19-17-19-17-15-14------15-(15)----17------|
|----------19--------------------------|----------------------------------------------|
|--------------------------------------|----------------------------------------------|
|--------------------------------------|----------------------------------------------|
|--------------------------------------|----------------------------------------------|
|
|  W                                      W
|--------------------------------------|----------------------------------------------|
|--------------------------------------|----------------------------------------------|
|--------------------------------------|----------------------------------------------|
|--------------------------------------|----------------------------------------------|
|--------------------------------------|----------------------------------------------|
|--------------------------------------|----------------------------------------------|


   |--3--|         |-----3-----|
   E E   E q       E    E      E q
|----------------------------------------|
|----------------------------------------|
|----------------------------------------|
|----------------------------------------|
|----------7---------------------9-------|
|--0-0---0---------0----0------0---------|
|
|             |---3---|          |--3--|
|  E   Q      E  E    E    +E    E  E  E
|----------------------------------------|
|-17---------17-19---20---(20)--------20-|
|----------------------------------21----|
|----------------------------------------|
|----------------------------------------|
|----------------------------------------|
|
|  W
|-24-------------------------------------|
|----------------------------------------|
|----------------------------------------|
|----------------------------------------|
|----------------------------------------|
|----------------------------------------|

[ Tab from: http://www.guitartabs.cc/tabs/m/misc_computer_games/halo_theme_tab_ver_5.html ]
    |--3---|           |--3--|  |--3--|
    E   E  E  q        E  E  E  E  E  E
|---------------------------------------||
|---------------------------------------||
|---------------------------------------||
|---------------------------------------||
|------------10----------------12-10--9-||
|---0---0--0-----------0--0--0----------||
|
|   |--3---|  |--3--|  |--3--|  |--3--|
|   E   E  E  E  E  E  E  E  E  E  E  E
|---------------------------------------||
|--19--17-15----------15-14-15-15-14-15-||
|---------------------------------------||
|------------16-14-12-------------------||
|---------------------------------------||
|---------------------------------------||
|
|             |--3--|
|  +Q         E  E  E  H
|-(24)-------12-24-22-------------------||
|---------------------------------------||
|---------------------------------------||
|---------------------------------------||
|---------------------------------------||
|---------------------------------------||


  Gtr IV
   |--3--|  |--3--|  |--3--|  |--3--|    |--3---|  |--3--|  |--3--|  |--3--|
   E  E  E  E  E  E  E  E  E  E  E  E    E   E  E  E  E  E  E  E  E  E  E  E
|-------------------15----13----15----|-13-----15-17-18-20-18-17----15----17-|
|-------20-------------15----13----15-|-----13-------------------17----15----|
|----19-------19-17-------------------|--------------------------------------|
|-17-------17-------------------------|--------------------------------------|
|-------------------------------------|--------------------------------------|
|-------------------------------------|--------------------------------------|
|
|  W                                    +H                  H
|-------------------------------------|--------------------------------------|
|--8----------------------------------|-(8)----------------10----------------|
|-------------------------------------|--------------------------------------|
|-------------------------------------|--------------------------------------|
|-------------------------------------|--------------------------------------|
|-------------------------------------|--------------------------------------|


                                         3/8
    |--3---|  |--3--|  |--3--|  |--3--|     |--3---|
    E   E  E  E  E  E  E  E  E  E  E  E     E   E  E  E
|------15----17----15----17----15----14-|--15--14-12-10---||
|--17-----15----17----15----17----15----|-----------------||
|---------------------------------------|-----------------||
|---------------------------------------|-----------------||
|---------------------------------------|-----------------||
|---------------------------------------|-----------------||
|
|  +W                                      +Q.
|---------------------------------------|-----------------||
|-(10)----------------------------------|-(10)------------||
|---------------------------------------|-----------------||
|---------------------------------------|-----------------||
|---------------------------------------|-----------------||
|---------------------------------------|-----------------||


 Strings Break
 4/4
  Gtr II
  |-3-|    |-3-|       |-3--|     |-3-|  |-3--|
  E E E Q  E E E Q     E  E E  Q  E E E  E  E E
|-------------------|---------------------------|
|-------------------|---------------------------|
|-------------------|---------------------------|
|-------------------|---------------------------|
|-------7--------9--|---------10--------12-10-9-|
|-0-0-0----0-0-0----|--0--0-0-----0-0-0---------|
|
| >
| W                   +W
|-------------------|---------------------------|
|-------------------|---------------------------|
|-9-----------------|-(9)-----------------------|
|-------------------|---------------------------|
|-------------------|---------------------------|
|-------------------|---------------------------|


   |-3--|    |-3-|       |-3--|     |-3-|  |-3--|
   E  E E Q  E E E Q     E  E E  Q  E E E  E  E E
|---------------------|---------------------------|
|---------------------|---------------------------|
|---------------------|---------------------------|
|---------------------|---------------------------|
|---------7--------9--|---------10--------12-10-9-|
|--0--0-0----0-0-0----|--0--0-0-----0-0-0---------|
|
| +W                    +W
|---------------------|---------------------------|
|---------------------|---------------------------|
|-(9)-----------------|-(9)-----------------------|
|---------------------|---------------------------|
|---------------------|---------------------------|
|---------------------|---------------------------|


 Strings Solo 2
   |--3--|                                 |--3--|
   E E   E  H.                             E  E  E  H.
|---------------------------------------|------------------------------------|
|---------------------------------------|------------------------------------|
|---------------------------------------|------------------------------------|
|---------------------------------------|------------------------------------|
|-----------7---------------------------|-----------9------------------------|
|--0-0---0------------------------------|--0--0--0---------------------------|
|
|           |--3---|  |--3--|              |--3--|  |--3---|
|  E   E    E   E  E  E  E  E  +S   E S    E  E  E  E   E  E  E.  S  S  S  E
|----------12--14-15-14-12-10-(10)------|-12----14-----15----17--15-14-12-10-|
|-12-------------------------------12---|----12----12-----12-----------------|
|---------------------------------------|------------------------------------|
|---------------------------------------|------------------------------------|
|---------------------------------------|------------------------------------|
|---------------------------------------|------------------------------------|


   |--3--|
   E E   E  H.
|---------------------------------------|
|---------------------------------------|
|---------------------------------------|
|---------------------------------------|
|----------10---------------------------|
|--0-0---0------------------------------|
|
|           |--3---|  |--3--|
|  E   E    E   E  E  E  E  E  +S   E S
|----------12--14-15-14-12-10-(10)------|
|-12-------------------------------12---|
|---------------------------------------|
|---------------------------------------|
|---------------------------------------|
|---------------------------------------|


   |--3--|           |-3--|     |----3-----|
   E  E  E  Q        E  E E     E     E    E
|---------------------------------------------|
|---------------------------------------------|
|---------------------------------------------|
|---------------------------------------------|
|----------12------------------12----10----9--|
|--0--0--0-----------0--0-0-------------------|
|
|  |--3--|  |--3--|
|  E  E  E  E  E  E  E.      S  S  S     E
|-12----14----15----17------15-14-12----10----|
|----12----12----12---------------------------|
|---------------------------------------------|
|---------------------------------------------|
|---------------------------------------------|
|---------------------------------------------|


  Gtr III
   |--3--|  |--3--|  |--3--|  |--3--|    |--3---|  |--3--|  |--3--|  |--3--|
   E  E  E  E  E  E  E  E  E  E  E  E    E   E  E  E  E  E  E  E  E  E  E  E
|-------15----------15----13----15----|-13-----15-17-18-20-18-17----15----17-|
|----15-------15-13----15----13----15-|-----13-------------------17----15----|
|-12-------12-------------------------|--------------------------------------|
|-------------------------------------|--------------------------------------|
|-------------------------------------|--------------------------------------|
|-------------------------------------|--------------------------------------|
|
| Gtr IV
|  W                                    +H                  H
|-------------------------------------|--------------------------------------|
|--8----------------------------------|-(8)----------------10----------------|
|-------------------------------------|--------------------------------------|
|-------------------------------------|--------------------------------------|
|-------------------------------------|--------------------------------------|
|-------------------------------------|--------------------------------------|


                                         3/8
    |--3---|  |--3--|  |--3--|  |--3--|     |--3---|
    E   E  E  E  E  E  E  E  E  E  E  E     E   E  E  E
|------15----17----15----17----15----14-|--15--14-12-10---||
|--17-----15----17----15----17----15----|-----------------||
|---------------------------------------|-----------------||
|---------------------------------------|-----------------||
|---------------------------------------|-----------------||
|---------------------------------------|-----------------||
|
|  +W                                      +Q.
|---------------------------------------|-----------------||
|-(10)----------------------------------|-(10)------------||
|---------------------------------------|-----------------||
|---------------------------------------|-----------------||
|---------------------------------------|-----------------||
|---------------------------------------|-----------------||


 Section 2
 4/4
  Gtr II
  |-3-|           |-3-|           |-3-|            |-3-|     |-3-|  |-3--|
  E E E H.        E E E H.        E E E  H.        E E E  Q  E E E  E  E E
|---------------|---------------|----------------|--------------------------|
|---------------|---------------|----------------|--------------------------|
|---------------|---------------|----------------|--------------------------|
|---------------|---------------|----------------|--------------------------|
|-------7-------|-------9-------|-------10-------|-------12--------12-10-9--|
|-0-0-0---------|-0-0-0---------|-0-0-0----------|-0-0-0-----0-0-0----------|
|
| Gtr I
| W               W               W                W
|---------------|---------------|----------------|--------------------------|
|---------------|---------------|----------------|-2------------------------|
|---------------|---------------|-0--------------|-2------------------------|
|-2-------------|-4-------------|----------------|--------------------------|
|---------------|---------------|----------------|--------------------------|
|---------------|---------------|----------------|--------------------------|


  |-3-|              |-3-|
  E E E H.           E E E H.
|-----------------|----------------|
|-----------------|----------------|
|-----------------|----------------|
|-----------------|----------------|
|-------7---------|--------9-------|
|-0-0-0-----------|--0-0-0---------|
|
| W                  W
|-----------------|----------------|
|-----------------|--2-------------|
|-----------------|--2-------------|
|-2---------------|----------------|
|-----------------|----------------|
|-----------------|----------------|
|
| Gtr III
| H         Q  Q     W
|-----------------|----------------|
|-----------7--8--|-10-------------|
|-9---------------|----------------|
|-----------------|----------------|
|-----------------|----------------|
|-----------------|----------------|


   |-3-|                 |-3-|     |-3-|  |-3--|
   E E E  H.             E E E  Q  E E E  E  E E
|---------------------|--------------------------|
|---------------------|--------------------------|
|---------------------|--------------------------|
|---------------------|--------------------------|
|--------10-----------|--------12--------12-10-9-|
|--0-0-0--------------|--0-0-0-----0-0-0---------|
|
|  W                     W
|---------------------|--------------------------|
|--3------------------|--5-----------------------|
|---------------------|--------------------------|
|---------------------|--------------------------|
|---------------------|--------------------------|
|---------------------|--------------------------|
|
|  H           Q   Q     W
|---------------------|--------------------------|
|-12------------------|-14-----------------------|
|-------------11--12--|--------------------------|
|---------------------|--------------------------|
|---------------------|--------------------------|
|---------------------|--------------------------|


  Gtr III
                                  >
   H     Q   Q     H      H       W            +W
|---------------|--------------|-19---------|-(19)----||
|-15----17--19--|-20-----22----|------------|---------||
|---------------|--------------|------------|---------||
|---------------|--------------|------------|---------||
|---------------|--------------|------------|---------||
|---------------|--------------|------------|---------||
|
| Gtr I
|                  >
|  W              +W             +W            +W
|---------------|--------------|------------|---------||
|--5------------|-(5)----------|-(5)--------|--(5)----||
|---------------|--------------|------------|---------||
|---------------|--------------|------------|---------||
|---------------|--------------|------------|---------||
|---------------|--------------|------------|---------||


 Outro
  Q=110                                           Q=115
  N.C.
     Gtr I
                                          >
   H    H      Q  Q  Q  Q    Q  H.        W
|------------|-------------|------------|-------------|
|------------|-------------|------------|-------------|
|------------|----------2--|------------|-------------|
|-------2----|-4--5--4-----|-5--4-------|-2-----------|
|------------|-------------|------------|-------------|
|------------|-------------|------------|-------------|
|
| Gtr V
|  W           W             W            H     H
|------------|-------------|------------|-------------|
|------------|-------------|------------|-------------|
|------------|-------------|------------|-------------|
|-^7---------|-------------|------------|------^7-----|
|-^7---------|-------------|------------|------^7-----|
|-^0---------|-------------|------------|------^0-----|


  Q  Q  H      Q  Q  Q  Q    +W           Q  Q  Q  Q
|------------|-------------|------------|--------------|
|----2--3----|-2-----2-----|------------|--------------|
|-4----------|----2-----4--|-(4)--------|----------0---|
|------------|-------------|------------|----0--2------|
|------------|-------------|------------|-2------------|
|------------|-------------|------------|--------------|


                                                >
  Q  H.        Q  Q  Q  Q    Q  H.        H    +H
|------------|-------------|------------|-------------*|
|------------|-------------|------------|-------------*|
|-2----------|----0--------|------------|-------------*|
|----4-------|-2-----4--2--|-4----------|-2----(2)----*|
|------------|-------------|----5-------|-------------*|
|------------|-------------|------------|-------------*|


Duration Legend
---------------
W - whole; H - half; Q - quarter; E - 8th; S - 16th; T - 32nd; X - 64th; a - acciaccatura
+ - note tied to previous; . - note dotted; .. - note double dotted
Uncapitalized letters represent notes that are staccato (1/2 duration)
Irregular groupings are notated above the duration line
Duration letters will always appear directly above the note/fret number it represents the
duration for.  Duration letters with no fret number below them represent rests.  Multi-
bar rests are notated in the form Wxn, where n is the number of bars to rest for.  Low
melody durations appear below the staff

Tablature Legend
----------------
 h   - hammer-on
 p   - pull-off
 b   - bend
 pb  - pre-bend
 r   - bend release (if no number after the r, then release immediately)
 /\  - slide into or out of (from/to "nowhere")
 s   - legato slide
 S   - shift slide
  - natural harmonic
[n]  - artificial harmonic
n(n) - tapped harmonic
 ~   - vibrato
 tr  - trill
 T   - tap
 TP  - trem. picking
 PM  - palm muting
\n/  - tremolo bar dip; n = amount to dip
 \n  - tremolo bar down
 n/  - tremolo bar up
/n\  - tremolo bar inverted dip
 =   - hold bend; also acts as connecting device for hammers/pulls
 <>  - volume swell (louder/softer)
 x   - on rhythm slash represents muted slash
 o   - on rhythm slash represents single note slash

Misc Legend
-----------
 |  - bar
||  - double bar
||o - repeat start
o|| - repeat end
*|  - double bar (ending)
 :  - bar (freetime)
 $  - Segno
 &  - Coda
Tempo markers -  = BPM(8/16=s8/s16), where s8 = swing 8ths, s16 = swing 16ths
Comments