Misc Computer Games - Halo Theme Chords & Tabs

 

Halo Theme Chords & Tabs

Misc Computer Games Chords & Tabs

Version: 4 Type: Tab 0 ratings
1 star 2 stars 3 stars 4 stars 5 stars
comments

Halo Theme Tab

All the other tabs are either incomplete or don't strike me as very appealing. My
previous one is similar to this, but this one has a few extra riffs. Okay guys, I
spend half my time whilst playing guitar working on the halo song, and I add a new
riff and other improvements every month. 
Here we go now.

e-----------------------------------------|
B-----------------------------------------|
G-----------2-----------------------------| Play this once, Intro. 
D--2-4-5-4-----5--4--------------------2--| 
A-----------------------------------------|
E-----------------------------------------|

e------------------------------------------------------------------|
B----2--3--2--2-0--------------------------------------------------|
G--4--------2-------------0--2------0------------------------------|
D-------------------0---2------4--2---4--2-4-------7-----9---------|
A-----------------2--------------------------5---------------------|
E------------------------------------------------------------------|

e--------------------------------------------------------------|
B--------------------------------------------------------------|
G--------------------------------------------------------------|
D--------------------------------------------------------------|
A----7---9---10---12---12-10-9---------------------------------|(3x times)
E-000-000-000--000--000----------------------------------------|

e----------------------------------------------------------|
B----------------------------------------------------------|
G----------------------------------------------------------|
D----------------------------------------------------------|
A--777--999-10-10-10--12-12-10-9---------------------------|(x2 times)
E----------------------------------------------------------|
[ Tab from: http://www.guitartabs.cc/tabs/m/misc_computer_games/halo_theme_tab_ver_4.html ]
e------------------------------------------------------|
B------------------------------------12----------------|
G--9--11--12--14-12-11-12-11-12----9-------------------|
D-------------------------------12---------------------|
A------------------------------------------------------|
E------------------------------------------------------|

e------------------------------------------------------|
B------------------------------------------------------|
G-----4----6----7----9----9-9--5--4--------------------|
D-----2----4----5----7----7-7--7--7--------------------|(x3 times)
A------------------------------------------------------|
E-000---000--000--000--000-----------------------------|

e------------------------------------------------------|
B------------------------------------------------------|
G--4-4-4---6-6-6---7-7-7---9--9--7-6-------------------|
D--2-2-2---4-4-4---5-5-5---7--7--5-4-------------------|
A------------------------------------------------------|(x2 times)
E------------------------------------------------------|


e------------------------------------------------------------------|
B----2--3--2--2-0--------------------------------------------------|
G--4--------2-------------0--2------0------------------------------|
D-------------------0---2------4--2---4--2-4-------------2---------|
A-----------------2--------------------------5---------------------|
E------------------------------------------------------------------|

Well there you go, as far as it goes, this is the most accurate tab I have found so
far not counting official ones that are either bought or I have not located free on
the web. Any ideas? Suggestions? All feedback is widely appreciated, thank you for
your time. Enjoy. 
P.S. I preformed this at a musical evening, half the kids didn't know the game and
were impressed. jay_aries@hotmail.com or dark_thief567@yahoo.com.au Church
Comments