Misc Computer Games - Halo Theme Chords & Tabs

 

Halo Theme Chords & Tabs

Misc Computer Games Chords & Tabs

Version: 3 Type: Tab 0 ratings
1 star 2 stars 3 stars 4 stars 5 stars
comments

Halo Theme Tab

Hey. I've taken out part of the official tab and my own tab and combined it into a
pretty entertaining piece. It's great to learn just to show off, and it's loads of
fun. Here it is!

e------------------------------------------------------------------|
B----2--3--2--2-0--------------------------------------------------|
G--4--------2-------------0--2------0------------------------------|
D-------------------0---2------4--2---4--2-4----------9------------|
A-----------------2--------------------------5---7-----------------|
E------------------------------------------------------------------|

e-------------------------------------------------------------------|
B-------------------------------------------------------------------|
G-------------------------------------------------------------------|
D-------------------------------------------------------------------|
A----7---9---10---12---12-10-9--------------------------------------|(x3 times)
E-000-000-000--000--000---------------------------------------------|

e----------------------------------------------------------|
B----------------------------------------------------------|
G----------------------------------------------------------|
D----------------------------------------------------------|
A--777--999-10-10-10--12-12-10-9---------------------------|(x2 times)
E----------------------------------------------------------|
[ Tab from: http://www.guitartabs.cc/tabs/m/misc_computer_games/halo_theme_tab_ver_3.html ]
e------------------------------------------------------|
B------------------------------------12----------------|
G--9--11--12--14-12-11-12-11-12----9-------------------|
D-------------------------------12---------------------|
A------------------------------------------------------|
E------------------------------------------------------|

e------------------------------------------------------|
B------------------------------------------------------|
G-----4----6----7----9----9-9--5--4--------------------|
D-----2----4----5----7----7-7--7--7--------------------|(x3 times)
A------------------------------------------------------|
E-000---000--000--000--000-----------------------------|

e------------------------------------------------------|
B------------------------------------------------------|
G--4-4-4---6-6-6---7-7-7---9-9--7-6--------------------|
D--2-2-2---4-4-4---5-5-5---7-7--5-4--------------------|
A------------------------------------------------------|(x2 times)
E------------------------------------------------------|


e------------------------------------------------------------------|
B----2--3--2--2-0--------------------------------------------------|
G--4--------2-------------0--2------0------------------------------|
D-------------------0---2------4--2---4--2-4----------9------------|
A-----------------2--------------------------5---7-----------------|
E------------------------------------------------------------------|

Well just practice that a couple of times and you'll be great! It's one of the easier 
and the first part is definately from the official song!
Please e-mail comments, questions, complaints or any feedback to jay_aries@hotmail.com 
the subject ULTIMATE GUITAR
thanks, laterz!
Comments