Misc Computer Games - Halo Theme Chords & Tabs

 

Halo Theme Chords & Tabs

Misc Computer Games Chords & Tabs

Version: 1 Type: Tab 0 ratings
1 star 2 stars 3 stars 4 stars 5 stars
comments

Halo Theme Tab

                            halo theme
                        tabbed by Erich Yeung
                      standard tuning (EADGBE)

this the opening part after the part with the church-like choir in the xbox game known as halo.

p.m=palm mute
l.r=ring
s.p=slight pause

|-----------------------------------------------------------------|
|-----------------------------------------------------------------|
|--------9----------12-----------14-----------14-------14-12-11---|
|--------9-l.r------12-l.r-------14-l.r-------14-------14-12-11---|
|--------7----------10-----------12-----------12-------12-10--9---|
|--0-0-0-7----0-0-0-10-----0-0-0-12-----0-0-0-12-0-0-0-12-10--9---|
  |-----|    |-----|      |-----|      |-----|  |-----|
    p.m        p.m          p.m          p.m      p.m

        |----------------------------------------------|
        |----------------------------------------------|
        |--------9-------11-------12-------14-12-11----|
        |--------9-------11-------12-------14-12-11----|
        |--------7--------9-------10-------12-10--9----|
        |--0-0-0-7-0-0-0--9-0-0-0-10-0-0-0-12-10--9----|
          |-----| |-----|  |-----|  |-----|  
            p.m     p.m      p.m      p.m 

        |----------------------------------------------|
        |----------------------------------------------|
        |--------9-------11-------12-------14-12-11----|
        |--------9-------11-------12-------14-12-11----|
        |--------7--------9-------10-------12-10--9----|
        |--0-0-0-7-0-0-0--9-0-0-0-10-0-0-0-12-10--9----|
          |-----| |-----|  |-----|  |-----|  
            p.m     p.m      p.m      p.m 

    |------------------------------------------------------|
    |------------------------------------------------------|
    |------------------------------------------------------|
    |------------------------------------------------------|
    |--14-s.p-14-16-17--14-17-16-14---------14-16-14-------|
    |-------------------------------17--12-----------------|

    |------------------------------------------------------|
    |------------------------------------------------------|
    |------------------------------------------------------|
    |--14-s.p-14-16-17--14-17-16-14---------14-16-14-------|
    |-------------------------------17--12-----------------|
    |------------------------------------------------------| 
[ Tab from: http://www.guitartabs.cc/tabs/m/misc_computer_games/halo_theme_tab.html ]
   |-------------------------------------------------------|
   |-------------------------------------------------------|
   |--11-------14-s.p--12-14-----11-------14-s.p--12-14----|
   |-----12-12----------------------12-12------------------|
   |-------------------------------------------------------|
   |-------------------------------------------------------|

    |------------------------------------------------------|
    |------------------------------------------------------|
    |------------------------------------------------------|
    |------------------------------------------------------|
    |--14-s.p-14-16-17--14-17-16-14---------14-16-14-------|
    |-------------------------------17--12-----------------|

    |------------------------------------------------------|
    |------------------------------------------------------|
    |------------------------------------------------------|
    |--14-s.p-14-16-17--14-17-16-14---------14-16-14-------|
    |-------------------------------17--12-----------------|
    |------------------------------------------------------| 

   |-------------------------------------------------------|
   |-------------------------------------------------------|
   |--11-------14-s.p--12-14-----11-------14-s.p--12-14----|
   |-----12-12----------------------12-12------------------|
   |-------------------------------------------------------|
   |-------------------------------------------------------|

    |--------------------------------------------------|
    |------------------------------------10------------|
    |--9-s.p-9-11-12-11-9--------9-11-12----12-11-9----|
    |---------------------12--9---------------------12-|
    |--------------------------------------------------|
    |--------------------------------------------------|

    |--------------------------------------------------|
    |------------------------------------10------------|
    |--9-s.p-9-11-12-11-9--------9-11-12----12-11-9----|
    |---------------------12--9---------------------12-|
    |--------------------------------------------------|
    |--------------------------------------------------|

|----------------------------------------------------------|
|----------------------------------------------------------|
|--------12------12--------12---------12--------12---------|
|-----12-------12----15-12----12-15-12--12-15-12--12-15----|
|--10-------10---------------------------------------------|
|----------------------------------------------------------|

   |-------------------------------------------|
   |-------------------------------------------|
   |--------14----------14----------14---------|
   |--17-14----14-17-14----14-17-14----14-17-14|
   |-------------------------------------------|
   |-------------------------------------------|

and thats it folks after you play this you start all over again. this is a
rough guide to it, enjoy. you should probably listen to it to find the rhythm.
e-mail me at ride_the_lightning@hotmail.com for suggestions,     rock on.
Comments