Misc Computer Games - Grand Theft Auto Vice City - Dangerous Bastard Chords & Tabs

 

Grand Theft Auto Vice City - Dangerous Bastard Chords & Tabs

Misc Computer Games Chords & Tabs

Version: 1 Type: Tab 0 ratings
1 star 2 stars 3 stars 4 stars 5 stars
comments

Grand Theft Auto Vice City - Dangerous Bastard Tab

   Artist : Rockstar's Lovefist
Song Name : Dangerous Bastard
Track No. : #5/123
    Album : Grand Theft Auto: Vice City Box Set 
 Released : Oct 29, 2002


Intro:
e-----------------------
B-----------------------
G--5-5-5-5-3-3-3--------
D--5-5-2/3-3-3-3--------
A--2/3-----0/1-1-1-0-1-3
E-----------------------

Verse:

e---------------------------
B---------------------------
G----------------3/5\3-3-3/5
D--5-5-5-5-5-5-5-3/5\3-3-3/5
A--5-5-5-5-5-5-5-1/3\1-1-1/3
E--3-3-3-3-3-3-3------------

Chorus:
[ Tab from: http://www.guitartabs.cc/tabs/m/misc_computer_games/grand_theft_auto_vice_city_dangerous_bastard_tab.html ]
e-----------------------
B-----------------------
G--5-5-5-5-3-3-3--------
D--5-5-2/3-3-3-3--------
A--2/3-----0/1-1-1-0-1-3
E-----------------------

Verse 2: 
e-------------
B-------------
G-------------
D--5-5-5-5-5-5
A--5-5-5-5-5-5
E--3-3-3-3-3-3

Outro:

e--------------------------------------------   -----
B--------------------------------------------   -----
G---------------3------------5-2h3p2------3-5   -5---
D--5-0h1p0------3-3h5p3------5------5p3p0-1-3   -3-5-
A--5------3p1p0-1------6p5p3-3---------------   ---5-
E--3-----------------------------------------   ---3-



Yep thats about it
good 80's glam rock(but written in 2002) sounding song
From GTA:3 Vice City
by Michzm
Comments