Misc Computer Games - Final Fantasy X - To Zandarkand Chords & Tabs

 

Final Fantasy X - To Zandarkand Chords & Tabs

Misc Computer Games Chords & Tabs

Version: 1 Type: Tab 0 ratings
1 star 2 stars 3 stars 4 stars 5 stars
comments

Final Fantasy X - To Zandarkand Tab

-------------------------------------------------------------------------------
			  To Zandarkand - Final Fantasy X
-------------------------------------------------------------------------------
Tabbed by: Sonicxtreefish ( James )
Email:kpxxbladexx415@yahoo.com

Tuning:Normal EADGBe(i think)

One of the Best Video Game Songs ever.
[ Tab from: http://www.guitartabs.cc/tabs/m/misc_computer_games/final_fantasy_x_to_zandarkand_tab.html ]
(Intro)v
e|-0---0-2-3----------0-2-------------------------0-0-0-0---3----------------|
B|---0----------3---3--------------------3----------------3---1--------------|
G|----------------2------------4-4-4-4-2-------------------------------------|
D|-----------------------------------------4---------------------------------|
A|---------------------------------------------------------------------------|
E|---------------------------------------------------------------------------|
(Main Part)
e|-0--0-2-3-2-0---0----------0--0-2-3-2-3-5-3-5-7---0--0-2-3-2-0---0---------|
B|---0----------3---3-1-0------0---------------------0-----------3---3-1-0---|
G|---------------------------------------------------------------------------|
D|---------------------------------------------------------------------------|
A|---------------------------------------------------------------------------|
E|---------------------------------------------------------------------------|

e|-------------------------------5--12-12-10-8-7-15-15--7-14-14--5-12-12-11--|
B|-0-0-0-0---3---------------------------------------------------------------|
G|---------2---0-0-----------------------------------------------------------|
D|-----------------4-0-2-----------------------------------------------------|
A|---------------------------------------------------------------------------|
E|---------------------------------------------------------------------------|
( The Ending )
e|-7-14-14-12-10-9-17-17------4-0-----2--------------------------------------|
B|--------------------------------2-0---------2-0----------------------------|
G|--------------------------------------2---2--------------------------------|
D|----------------------------------------4----------------------------------|
A|---------------------------------------------------------------------------|
E|---------------------------------------------------------------------------|


( The End )
===============================================================================
Comments