Misc Computer Games - Final Fantasy X - Otherworld Chords & Tabs

 

Final Fantasy X - Otherworld Chords & Tabs

Misc Computer Games Chords & Tabs

Version: 1 Type: Tab 0 ratings
1 star 2 stars 3 stars 4 stars 5 stars
comments

Final Fantasy X - Otherworld Tab

   
Otherworld
Final Fantasy X

Tabbed by:
Toshiro

Tuning:
Lead Guitar: Db-Ab-Db-Gb-Bb-Eb
Rhythm Guitar: Db-Ab-Db-Gb-Bb-Eb

----------------------------------------------------------------------

LEAD GUITAR (All Distorted)

Intro (x2)
|-------------------------------------------------------------|
|------15-------------10-------------15-----------------------|
|------17b(19)--------12b(14)--------17b(19)------------------|
|-0-0------------0-0------------0-0------------6\5-6\5-6\5-3--|
|-0-0------------0-0------------0-0------------6\5-6\5-6\5-3--|
|-0-0------------0-0------------0-0------------6\5-6\5-6\5-3--|

Rhythm Figure
|-------------------------------|------------------------------|
|-------------------------------|------------------------------|
|-------------------------------|------------------------------|
|-0-0-3\2-0-0-5\3-0-0-7--6\5--3-|-0-0-3\2-0-0-5\3-0-0-7--6-3---|
|-0-0-3\2-0-0-5\3-0-0-7--6\5--3-|-0-0-3\2-0-0-5\3-0-0-7--6-3---|
|-0-0-3\2-0-0-5\3-0-0-7--6\5--3-|-0-0-3\2-0-0-5\3-0-0-7--6-3---|
pm....    ....    ....            ....    ....    ....

|-------------------------------|---------------------------------------|
|-------------------------------|---------------------------------------|
|-------------------------------|---------------------------------------|
|-0-0-3\2-0-0-5\3-0-0-7--6\5--3-|-0-0-3\2-0-0-5\3-0-0-7--6-3-----/(12)\-|
|-0-0-3\2-0-0-5\3-0-0-7--6\5--3-|-0-0-3\2-0-0-5\3-0-0-7--6-3-----/(12)\-|
|-0-0-3\2-0-0-5\3-0-0-7--6\5--3-|-0-0-3\2-0-0-5\3-0-0-7--6-3-----/(12)\-|
pm....    ....    ....            ....    ....    ....

Verse (x2)
|-------------------------------|------------------------------|
|-------------------------------|------------------------------|
|-------------------------------|------------------------------|
|-0-0-3\2-0-0-5\3-0-0-7--6\5--3-|-0-0-3\2-0-0-5\3-0-0-7--6-3---|
|-0-0-3\2-0-0-5\3-0-0-7--6\5--3-|-0-0-3\2-0-0-5\3-0-0-7--6-3---|
|-0-0-3\2-0-0-5\3-0-0-7--6\5--3-|-0-0-3\2-0-0-5\3-0-0-7--6-3---|
pm....    ....    ....            ....    ....    ....

Rhythm Figure (x4)
|---10=-10=-14=-14=-14=---|
|---9-=-9-=-13=-13=-13=---|
|---8-=-8-=-12=-12=-12=---|
|-------------------------|
|-------------------------|
|-------------------------|

Rhythm Fill
|--------------|
|--------------|
|--------------|
|-0-2-3-5-6-8--|
|-0-2-3-5-6-8--|
|-0-2-3-5-6-8--|
pm............

Verse (x2)
|-------------------------------|------------------------------|
|-------------------------------|------------------------------|
|-------------------------------|------------------------------|
|-0-0-3\2-0-0-5\3-0-0-7--6\5--3-|-0-0-3\2-0-0-5\3-0-0-7--6-3---|
|-0-0-3\2-0-0-5\3-0-0-7--6\5--3-|-0-0-3\2-0-0-5\3-0-0-7--6-3---|
|-0-0-3\2-0-0-5\3-0-0-7--6\5--3-|-0-0-3\2-0-0-5\3-0-0-7--6-3---|
pm....    ....    ....            ....    ....    ....

Interlude
|-----------------|-----------------|-----------------|------------------|
|---------3-------|---------3-------|---------3-------|---------3--------|
|-----2-------2---|-----3-------3---|-----2-------2---|-----1-----{1}v---|
|-0-0---0---0---0-|-0-0---0---0---0-|-0-0---0---0---0-|-0-0---0----------|
|-----------------|-----------------|-----------------|------------------|
|-----------------|-----------------|-----------------|------------------|
pm................................................................

|-----------------|-----------------|-----------------|----------------|
|---------3-------|---------3-------|---------3-------|---------3------|
|-----2-------2---|-----3-------3---|-----4-------4---|-----3-----3v---|
|-0-0---0---0---0-|-0-0---0---0---0-|-0-0---0---0---0-|-0-0---0--------|
|-----------------|-----------------|-----------------|----------------|
|-----------------|-----------------|-----------------|----------------|
pm................................................................

Rhythm Figure
|-------------|
|-------------|
|-------------|
|---NOTHING---|
|-------------|
|-------------|

Solo (don't know if it's 100% correct, but it's how I play it, and I love it)
|---------------------------------------------------------------------|
|-15------w-w-w-w-w---------------------------------------------------|
|-17b(19)-w-w-w-w-w--17p14h17p14h17p14h17p14h17p14-13b(14)------------|
|----------------------------------------------------------17p15------|
|----------------------------------------------------------------17v\-|
|---------------------------------------------------------------------|

|------------------------------------------------|
|-----------------------------1---1--1-----------|
|---------------------0-2-0---1---1--1--4p2-4-w--|
|-----0-----0-----0-3-------3---------------5-w--|
|---------3-----3--------------------------------|
|-0-0--------------------------------------------|
pm....

|-x-x-3-x-x-5-x-x-7-5-7/10---7---5-12=10=7=12=10=7=12=10=7=12=10=7=12=10=7-|
|-x-x---x-x---x-x----------------------------------------------------------|
|-x-x---x-x---x-x----------------------------------------------------------|
|--------------------------------------------------------------------------|
|--------------------------------------------------------------------------|
|--------------------------------------------------------------------------|

|-13-13\-15-15\-17-17\-18-18\-20-20\-22---w-w-w-\-|
|-------------------------------------------------|
|-------------------------------------------------|
|-------------------------------------------------|
|-------------------------------------------------|
|-------------------------------------------------|

|---------------------------------------------|
|---------------------------------------------|
|--------------------17-19--17----------------|
|---------17--18--19------------19--18--17----|
|-17--20-----------------------------------20-|
|---------------------------------------------|

|---------------------------------------------|
|---------------------------------------------|
|--------------------17-19--17----------------|
|---------17--18--19------------19--18--17----|
|-17--20-----------------------------------20-|
|---------------------------------------------|

|----------------------------------|
|----------------------------------|
|----------------18b(19)-w-w-w-w-w-|
|----------------------------------|
|-17-w-w-w-w-w-w-------------------|
|----------------------------------|
[ Tab from: http://www.guitartabs.cc/tabs/m/misc_computer_games/final_fantasy_x_otherworld_tab.html ]
|------------------------------------------------------|
|-h9p7p0h9p7p0h9p7p0h9p7p0h10p8p0h10p8p0h10p8p0h10p8p0-|
|------------------------------------------------------|
|------------------------------------------------------|
|------------------------------------------------------|
|------------------------------------------------------|

|------------------------------|
|-h11p9p0h11p9p0h11p9p0h11p9p0-|
|------------------------------|
|------------------------------|
|------------------------------|
|------------------------------|

|--------------------------------|
|-12/=/=/=/=/=/=/=/=20=b=(22)=\--|
|--------------------------------|
|--------------------------------|
|--------------------------------|
|--------------------------------|

Verse (x4)
|-------------------------------|------------------------------|
|-------------------------------|------------------------------|
|-------------------------------|------------------------------|
|-0-0-3\2-0-0-5\3-0-0-7--6\5--3-|-0-0-3\2-0-0-5\3-0-0-7--6-3---|
|-0-0-3\2-0-0-5\3-0-0-7--6\5--3-|-0-0-3\2-0-0-5\3-0-0-7--6-3---|
|-0-0-3\2-0-0-5\3-0-0-7--6\5--3-|-0-0-3\2-0-0-5\3-0-0-7--6-3---|
pm....    ....    ....            ....    ....    ....

Outro (Play to fadeout)
|-------------------------------|------------------------------|
|-------------------------------|------------------------------|
|-------------------------------|------------------------------|
|-0-0-3\2-0-0-5\3-0-0-7--6\5--3-|-0-0-3\2-0-0-5\3-0-0-7--6-3---|
|-0-0-3\2-0-0-5\3-0-0-7--6\5--3-|-0-0-3\2-0-0-5\3-0-0-7--6-3---|
|-0-0-3\2-0-0-5\3-0-0-7--6\5--3-|-0-0-3\2-0-0-5\3-0-0-7--6-3---|
pm....    ....    ....            ....    ....    ....

----------------------------------------------------------------------------

RHYTHM GUITAR (All Distorted)

Intro (x2)
|----------------------------------------|
|----------------------------------------|
|----------------------------------------|
|-0-0-----0-0-----0-0-----6\5-6\5-6\5-3--|
|-0-0-----0-0-----0-0-----6\5-6\5-6\5-3--|
|-0-0-----0-0-----0-0-----6\5-6\5-6\5-3--|

Rhythm Figure
|-------------------------------|------------------------------|
|-------------------------------|------------------------------|
|-------------------------------|------------------------------|
|-0-0-3\2-0-0-5\3-0-0-7--6\5--3-|-0-0-3\2-0-0-5\3-0-0-7--6-3---|
|-0-0-3\2-0-0-5\3-0-0-7--6\5--3-|-0-0-3\2-0-0-5\3-0-0-7--6-3---|
|-0-0-3\2-0-0-5\3-0-0-7--6\5--3-|-0-0-3\2-0-0-5\3-0-0-7--6-3---|
pm....    ....    ....            ....    ....    ....

|-------------------------------|---------------------------------------|
|-------------------------------|---------------------------------------|
|-------------------------------|---------------------------------------|
|-0-0-3\2-0-0-5\3-0-0-7--6\5--3-|-0-0-3\2-0-0-5\3-0-0-7--6-3-----/(12)\-|
|-0-0-3\2-0-0-5\3-0-0-7--6\5--3-|-0-0-3\2-0-0-5\3-0-0-7--6-3-----/(12)\-|
|-0-0-3\2-0-0-5\3-0-0-7--6\5--3-|-0-0-3\2-0-0-5\3-0-0-7--6-3-----/(12)\-|
pm....    ....    ....            ....    ....    ....

Verse (x2)
|-------------------------------|------------------------------|
|-------------------------------|------------------------------|
|-------------------------------|------------------------------|
|-0-0-3\2-0-0-5\3-0-0-7--6\5--3-|-0-0-3\2-0-0-5\3-0-0-7--6-3---|
|-0-0-3\2-0-0-5\3-0-0-7--6\5--3-|-0-0-3\2-0-0-5\3-0-0-7--6-3---|
|-0-0-3\2-0-0-5\3-0-0-7--6\5--3-|-0-0-3\2-0-0-5\3-0-0-7--6-3---|
pm....    ....    ....            ....    ....    ....

Rhythm Figure
|-------------|
|-------------|
|-------------|
|---NOTHING---|
|-------------|
|-------------|

Rhythm Fill
|--------------|
|--------------|
|--------------|
|-0-2-3-5-6-8--|
|-0-2-3-5-6-8--|
|-0-2-3-5-6-8--|
pm............

Verse (x2)
|-------------------------------|------------------------------|
|-------------------------------|------------------------------|
|-------------------------------|------------------------------|
|-0-0-3\2-0-0-5\3-0-0-7--6\5--3-|-0-0-3\2-0-0-5\3-0-0-7--6-3---|
|-0-0-3\2-0-0-5\3-0-0-7--6\5--3-|-0-0-3\2-0-0-5\3-0-0-7--6-3---|
|-0-0-3\2-0-0-5\3-0-0-7--6\5--3-|-0-0-3\2-0-0-5\3-0-0-7--6-3---|
pm....    ....    ....            ....    ....    ....

Interlude
|---------------------------------|
|---------------------------------|
|---------------------------------|
|-7---8---7---6---7---8---9---8---|
|-7---8---7---6---7---8---9---8---|
|-7---8---7---6---7---8---9---8---|

Rhythm Figure (x2)
|------------------------------|
|------------------------------|
|------------------------------|
|-0--3--0-5--0-3--0-5--0-{3}v--|
|-0--3--0-5--0-3--0-5--0-------|
|-0--3--0-5--0-3--0-5--0-------|
pm      ..   ..   ..   ..

Solo
|------------------------------|
|----------------------(x4)----|
|------------------------------|
|-0--3--0-5--0-3--0-5--0-{3}v--|
|-0--3--0-5--0-3--0-5--0-------|
|-0--3--0-5--0-3--0-5--0-------|
pm      ..   ..   ..   ..

|------------------------------|
|----------------------(x2)----|
|------------------------------|
|-2--5--2-7--2-5--2-7--2-{5}v--|
|-2--5--2-7--2-5--2-7--2-------|
|-2--5--2-7--2-5--2-7--2-------|
pm      ..   ..   ..   ..

|------------------------------|
|------------------------------|
|------------------------------|
|-0--3--0-5--0-3--0-5--0-{3}v--|
|-0--3--0-5--0-3--0-5--0-------|
|-0--3--0-5--0-3--0-5--0-------|
pm      ..   ..   ..   ..

|-----------------------------------------|
|-----------------------------------------|
|-----------------------------------------|
|-0--3--5--6--7-10-12--10--7--6--5-3-(x2)-|
|-0--3--5--6--7-10-12--10--7--6--5-3------|
|-0--3--5--6--7-10-12--10--7--6--5-3------|

|--------------------------------------|
|--------------------------------------|
|--------------------------------------|
|-0--------------------7---8---9---8---|
|-0--------------------7---8---9---8---|
|-0--------------------7---8---9---8---|

Verse (x2)
|-------------------------------|------------------------------|
|-------------------------------|------------------------------|
|-------------------------------|------------------------------|
|-0-0-3\2-0-0-5\3-0-0-7--6\5--3-|-0-0-3\2-0-0-5\3-0-0-7--6-3---|
|-0-0-3\2-0-0-5\3-0-0-7--6\5--3-|-0-0-3\2-0-0-5\3-0-0-7--6-3---|
|-0-0-3\2-0-0-5\3-0-0-7--6\5--3-|-0-0-3\2-0-0-5\3-0-0-7--6-3---|
pm....    ....    ....            ....    ....    ....

Outro (Play to fadeout)
|-------------------------------|------------------------------|
|-------------------------------|------------------------------|
|-------------------------------|------------------------------|
|-0-0-3\2-0-0-5\3-0-0-7--6\5--3-|-0-0-3\2-0-0-5\3-0-0-7--6-3---|
|-0-0-3\2-0-0-5\3-0-0-7--6\5--3-|-0-0-3\2-0-0-5\3-0-0-7--6-3---|
|-0-0-3\2-0-0-5\3-0-0-7--6\5--3-|-0-0-3\2-0-0-5\3-0-0-7--6-3---|
pm....    ....    ....            ....    ....    ....
Comments