Misc Computer Games - Final Fantasy X - Otherworld Chords & Tabs

 

Final Fantasy X - Otherworld Chords & Tabs

Misc Computer Games Chords & Tabs

Version: 2 Type: Bass Tab 0 ratings
1 star 2 stars 3 stars 4 stars 5 stars
comments

Final Fantasy X - Otherworld Bass Tab

Otherworld
Final Fantasy X

G|------------------------|
D|-------5------3------5--|
A|------------------------|
E|--0-0----0-0----0-0-----|

G|-------------------|
D|-------------------|
A|-------------------|
E|--5-4-5-4-5-4-3-2--|

G|------------------------|
D|-------5------3------5--|
A|------------------------|
E|--0-0----0-0----0-0-----|

G|-------------------|
D|-------------------|
A|-------------------|
E|--5-4-5-4-5-4-3-2--|
[ Tab from: http://www.guitartabs.cc/tabs/m/misc_computer_games/final_fantasy_x_otherworld_btab_ver_2.html ]
G|--------------------------------|
D|--------------------------------|
A|--------------------------------|
E|--0-0-5p4--0-0-5p4--0-0-5-44-5--|

G|--------------------------------|
D|--------------------------------|
A|--------------------------------|
E|--0-0-5p4--0-0-5p4--0-0-5-4-2~--|

G|--------------------------------|
D|--------------------------------|
A|--------------------------------|
E|--0-0-5p4--0-0-5p4--0-0-5-44-5--|

G|------------------------------------|
D|------------------------------------|
A|------------------------------------|
E|--0-0-5p4--0-0-5p4--0-0-5-4-2--2/5--|
Comments