Misc Computer Games - Final Fantasy X - Otherworld Chords & Tabs

 

Final Fantasy X - Otherworld Chords & Tabs

Misc Computer Games Chords & Tabs

Version: 1 Type: Bass Tab 0 ratings
1 star 2 stars 3 stars 4 stars 5 stars
comments

Final Fantasy X - Otherworld Bass Tab

   
Otherworld
Final Fantasy X

Tabbed by:
Toshiro

Tuning: Db-Ab-Db-Gb

Intro (x2)
|-----------------------------------------|
|-----------------------------------------|
|-----------------------------------------|
|-0-0-----0-0-----0-0-----6-5-6-5-6-5-3---|

Rhythm Figure (x2, on second time the last note is fermata)
|---------------------------------|-------------------------------|
|---------------------------------|-------------------------------|
|---------------------------------|-------------------------------|
|-0-0-3-2-0-0-5-3-0-0-7-0-6-5-0-3-|-0-0-3-2-0-0-5-3-0-0-7-0-6-3---|

Verse (x2)
|---------------------------------|-------------------------------|
|---------------------------------|-------------------------------|
|---------------------------------|-------------------------------|
|-0-0-3-2-0-0-5-3-0-0-7-0-6-5-0-3-|-0-0-3-2-0-0-5-3-0-0-7-0-6-3---|

Bass Solo
|-------------------------------------------------|
|----2--0--------------------------0-----0--2--4--|
|----------2--4--0--3--------2--1-----4-----------|
|-2--------------------6--2-----------------------|

|----------------------------------------------------|
|-2--1--0-0-----------------------------0----2----4--|
|-----------4--2--1--0--------2----4--0----2----2----|
|-----------------------5--2-----5-------------------|

Rhythm Fill
|-------------|
|-------------|
|-------------|
|-0-2-3-5-6-8-|

Verse (x2)
|---------------------------------|-------------------------------|
|---------------------------------|-------------------------------|
|---------------------------------|-------------------------------|
|-0-0-3-2-0-0-5-3-0-0-7-0-6-5-0-3-|-0-0-3-2-0-0-5-3-0-0-7-0-6-3---|
[ Tab from: http://www.guitartabs.cc/tabs/m/misc_computer_games/final_fantasy_x_otherworld_btab.html ]
Interlude
|-------------------------------------------------|
|-------------------------------------------------|
|-------------------------------------------------|
|-7-----8-----7-----6-----7-----8-----9-----8-----|

Pre-Solo (x2)
|---------------------------|
|---------------------------|
|---------------------------|
|-0--3--0-5--0-3--0-5--0-3--|

Solo Backing
|--------------------------------|
|--------------------------------|
|---------------------------(x4)-|
|-0--3--0-5--0-3--0-5--0-3-------|

|--------------------------------|
|--------------------------------|
|---------0---------0-------(x2)-|
|-2--5--2----2-5--2----2-5-------|

|---------------------------|
|---------------------------|
|---------------------------|
|-0--3--0-5--0-3--0-5--0-3--|

|-----------------------------------------------------|
|-----------------------------------------------------|
|------------------------------------------------(x2)-|
|-0---3---5---6---7--10--12---10---7---6---5--3-------|

|----------------------------------------------|
|----------------------------------------------|
|----------------------------------------------|
|-0--------------------7-----8-----9-----8-----|

Verse (x4)
|---------------------------------|-------------------------------|
|---------------------------------|-------------------------------|
|---------------------------------|-------------------------------|
|-0-0-3-2-0-0-5-3-0-0-7-0-6-5-0-3-|-0-0-3-2-0-0-5-3-0-0-7-0-6-3---|

Outro (My version)
|---------------------------------|-------------------------------|
|---------------------------------|-------------------------------|
|---------------------------------|-------------------------------|
|-0-0-3-2-0-0-5-3-0-0-7-0-6-5-0-3-|-0-0-3-2-0-0-5-3-0-0-7-0-6-3---|

|---------------------------------|-------------------------------|
|---------------------------------|-------------------------------|
|---------------------------------|-------------------------------|
|-0-0-3-2-0-0-5-3-0-0-7-0-6-5-0-3-|-0-0-3-2-0-0-5-3-0-0-7-0-6-3---|

|-----------------|
|-----------------|
|-----------------|
|-(3)----/(12)\-0-|
Comments