Misc Computer Games - Final Fantasy 9 Theme Chords & Tabs

 

Final Fantasy 9 Theme Chords & Tabs

Misc Computer Games Chords & Tabs

Version: 1 Type: Tab 0 ratings
1 star 2 stars 3 stars 4 stars 5 stars
comments

Final Fantasy 9 Theme Tab

The Place I'll Return To Someday

e|-------------------------7---8---7-----------------------------------|
B|-----------------8---10--------------10---8---10---------------------|
G|---7---9---10--------------------------------------10---9---7---5----|
D|---------------------------------------------------------------------|
A|---------------------------------------------------------------------|
E|---------------------------------------------------------------------|

e|-------------------------7---8---7----------------------|
B|-----------------8---10--------------10---10---9---10---|
G|---7---9---10-------------------------------------------|
D|--------------------------------------------------------|
A|--------------------------------------------------------|
E|--------------------------------------------------------|

e|-------------------------7---8---7-----------------------------------|
B|-----------------8---10--------------10---8---10---------------------|
G|---7---9---10--------------------------------------10---9---7---5----|
D|---------------------------------------------------------------------|
A|---------------------------------------------------------------------|
E|---------------------------------------------------------------------|
[ Tab from: http://www.guitartabs.cc/tabs/m/misc_computer_games/final_fantasy_9_theme_tab.html ]
e|----------------------------------------------------------------------------|
B|-------------------------------------10-------------------------------------|
G|---10---10---12---10---9------------------9---12---10---9---9---10---7---7--|
D|---------------------------12---10------------------------------------------|
A|----------------------------------------------------------------------------|
E|----------------------------------------------------------------------------|

e|---10------10---8---7----------------------------------7---8-----|
B|-------10--------------10---8---10---6---8---10---10-------------|
G|-----------------------------------------------------------------|
D|-----------------------------------------------------------------|
A|-----------------------------------------------------------------|
E|-----------------------------------------------------------------|

e|---10------10---8---7---------------------------------------|
B|-------10--------------10---8-------------------------------|
G|--------------------------------10---12---9-----------------|
D|----------------------------------------------11---12---12--|
A|------------------------------------------------------------|
E|------------------------------------------------------------|

e|---10------10---8---7----------------------------------7---8---8-|
B|-------10--------------10---8---10---6---8---10---10-------------|
G|-----------------------------------------------------------------|
D|-----------------------------------------------------------------|
A|-----------------------------------------------------------------|
E|-----------------------------------------------------------------|

e|---10------10---8---7---------------------------------------|
B|-------10--------------10---8-------------------------------|
G|--------------------------------10---12---9-----------------|
D|----------------------------------------------12---11---12--|
A|------------------------------------------------------------|
E|------------------------------------------------------------|
Comments