Misc Computer Games - Final Fantasy 8 - Breezy Chords & Tabs

 

Final Fantasy 8 - Breezy Chords & Tabs

Misc Computer Games Chords & Tabs

Version: 1 Type: Tab 0 ratings
1 star 2 stars 3 stars 4 stars 5 stars
comments

Final Fantasy 8 - Breezy Tab

   
Breezy
Final Fantasy VIII

Tabbed by:
Toshiro

Tuning: E-A-D-G-B-E

|-------2-------2-------2-------2-------0-------0-------3-------3-|
|-----0-----0---------0-----0---------0-----0---------0-----0-----|
|---2---------2-----2---------2-----0---------0-----0---------0---|
|-0---------------0---------------0---------------0---------------|
|-----------------------------------------------------------------|
|-----------------------------------------------------------------|

|-------2-------2-------2-------2-------0-------0-3-----2-----0---|
|-----0-----0---------0-----0---------0-----0---------3-----3-----|
|---2---------2-----2---------2-----0---------0-----4-----2---0-3-|
|-0---------------0---------------0---------------0-----0---------|
|-----------------------------------------------------------------|
|-----------------------------------------------------------------|
					
|-------2-------2-------2h3p2-----2--------0-------0-------3-----3---|
|-----2-----2---------2-------2----------3-----3-------2-----2-----2-|
|---2---------2-----2-----------2------0---------0-------4-----4-----|
|-0---------------0------------------0---------------0---------------|
|--------------------------------------------------------------------|
|--------------------------------------------------------------------|
[ Tab from: http://www.guitartabs.cc/tabs/m/misc_computer_games/final_fantasy_8_breezy_tab.html ]
|-------2-------2-5-----3-----2---3-----2-----3---0---|
|-----2-----2-------1-------1---1-----0-----0---0-2---|
|---2---------2-------4---4---------0-----0-------2---|
|-0---------------0---------------2-----0-----2---2---|
|-----------------------------------------------------|
|-----------------------------------------------------|

|-2-----2-------2-5-----5-------5-7-----7-------7-5-----5-------5-|
|---3-------3-------6-------6-------8-------8-------7-------7-----|
|-----2-------2-------5-------5-------7-------7-------7-------7---|
|-0---------------0---------------0---------------0---------------|
|-----------------------------------------------------------------|
|-----------------------------------------------------------------|

|-2-----2-------2-5-----5-------5-7-----7-------7-5-----------------|
|---3-------3-------6-------6-------8-------8--------[7]------------|
|-----2-------2-------5-------5-------7-------7-----------[7]-------|
|-0---------------0---------------0---------------0------------[7]--|
|-------------------------------------------------------------------|
|-------------------------------------------------------------------|

|-------3-------3-5-----3-------3-------3-------3-5-----3---------|
|-----3-----3-------3-------3---------3-----3-------3-------3---3-|
|---4---------4-------4-------4-----3---------3-------3-------3---|
|-0---------------0---------------0---------------0---------------|
|-----------------------------------------------------------------|
|-----------------------------------------------------------------|

|-------2-------2-------2-------2-------0----------3---|
|-----0-------0-------0-------0-------3-----3---3--3---|
|---2-------2-------2-------2-------4---------4----3---|
|-0-------------------------------0----------------0---|
|------------------------------------------------------|
|------------------------------------------------------|
Comments