Misc Computer Games - Dynasty Warriors 3 - Jump Into The Battlefield Chords & Tabs

 

Dynasty Warriors 3 - Jump Into The Battlefield Chords & Tabs

Misc Computer Games Chords & Tabs

Version: 1 Type: Tab 0 ratings
1 star 2 stars 3 stars 4 stars 5 stars
comments

Dynasty Warriors 3 - Jump Into The Battlefield Tab

----------------------------------------------------------------------
	      Jump Into The Battlefield - Dynasty Warriors 3
----------------------------------------------------------------------

Tabbed by: metalgeardave
Email: metalgeardave@hotmail.com


Intro x4

E|--------------------------|
B|--------------------------|
G|--------------------------|
D|-------7------------------|
A|-5-6-5---5---5-6-5-6-6-6--|
E|--------------------------|

Slide Riff x3
[ Tab from: http://www.guitartabs.cc/tabs/m/misc_computer_games/dynasty_warriors_3_jump_into_the_battlefield_tab.html ]
E|-----------------|  E|---------------------------|
B|-----------------|  B|---------------------------|
G|-----------------|  G|---------------------------|
D|-5-5-5-5--7s8s7--|  D|---------------------------|
A|-3-3-3-3--5s6s5--|  A|-7-7-7-7-7-8--7-7-7-7-7-9--|
E|-----------------|  E|-5-5-5-5-5-6--5-5-5-5-5-7--|

E|-------------------------------------------------|
B|-------------------------------------------------|
G|-------------------------------------------------|
D|-------------------------------------------------|
A|-3p1h3h3h3--3p1h3h3h3----3p1h3h3h3--3p1h3h3h3----|
E|----------------------3-----------------------3--|

E|-------------------------------------------------|
B|-------------------------------------------------|
G|-------------------------------------------------|
D|-------------------------------------------------|
A|-6p4h6h6h6--6p4h6h6h6----6p4h6h6h6--6p4h4h4h4----|
E|----------------------6-----------------------6--|

Rhythm Chords: Repeat x4
E|-------------|
B|-------------|
G|-5--8--3-----|
D|-5--8--3--6--|
A|-3--6--1--6--|
E|----------4--|

Comments