Misc Computer Games - Doom Theme Chords & Tabs

 

Doom Theme Chords & Tabs

Misc Computer Games Chords & Tabs

Version: 2 Type: Tab 0 ratings
1 star 2 stars 3 stars 4 stars 5 stars
comments

Doom Theme Tab

                             DOOM Main Theme

                  This is the main theme for DOOM (E1M1):

|--------------------------------------------------|
|--------------------------------------------------|
|--------------------------------------------------|
|--------------------------------------------------|
|--------------------------------------------------|
|-0-0-12-0-0-10-0-0-8-0-0-6-0-0-4\5-4\5------------|

|--------------------------------------------------|
|--------------------------------------------------|
|--------------------------------------------------|
|--------------------------------------------------|
|--------------------------------------------------|
|-0-0-12-0-0-10-0-0-8-0-0-6------------------------|
[ Tab from: http://www.guitartabs.cc/tabs/m/misc_computer_games/doom_theme_tab_ver_2.html ]
|--------------------------------------------------|
|--------------------------------------------------|
|--------------------------------------------------|
|--------------------------------------------------|
|-0-0-12-0-0-10-0-0-8-0-0-6-0-0-4\5-4\5------------|
|--------------------------------------------------|

|--------------------------------------------------|
|--------------------------------------------------|
|--------------------------------------------------|
|--------------------------------------------------|
|-0-0-12-0-0-10-0-0-8-0-0-6------------------------|
|--------------------------------------------------|

It's just those riffs,well there's some shit in between the riffs but
it's too hard to tab.just sound DOOM and it's good ;)

Thank you,Enjoy!
Bye!
Comments