Misc Computer Games - Doom Theme Chords & Tabs

 

Doom Theme Chords & Tabs

Misc Computer Games Chords & Tabs

Version: 1 Type: Tab 0 ratings
1 star 2 stars 3 stars 4 stars 5 stars
comments

Doom Theme Tab

                           DOOM   Episode 1,Map 6

|------------------------------------------------------|
|------------------------------------------------------|
|------------------------------------------------------|
|------------------------------------------------------|
|-2--3-3-3---2--3-3-3---2--3-3-3---2--3-3-3------------|
|-0--1-1-1---0--1-1-1---0--1-1-1---0--1-1-1------------|

|------------------------------------------------------|
|------------------------------------------------------|
|------------------------------------------------------|
|------------------------------------------------------|
|-2--3-3-3---2--3-3-3---2--3-3-3---2--3-3-2------------|
|-0--1-1-1---0--1-1-1---0--1-1-1---0--1-1-0------------|


|------------------------------------------------------|
|------------------------------------------------------|
|------------------------------------------------------|
|------------------------------------------------------|
|-7--8-8-8---7--8-8-8---7--8-8-8---7--8-8-7------------|
|-5--6-6-6---5--6-6-6---5--6-6-6---5--6-6-5------------|
[ Tab from: http://www.guitartabs.cc/tabs/m/misc_computer_games/doom_theme_tab.html ]
|------------------------------------------------------|
|------------------------------------------------------|
|------------------------------------------------------|
|------------------------------------------------------|
|-2--3-3-3---2--3-3-3---2--3-3-3---2--3-3-2------------|
|-0--1-1-1---0--1-1-1---0--1-1-1---0--1-1-0------------|


|--------------------------|
|--------------------------|
|--------------------------|
|--------------------------|
|-9-101010---9-1010-9------|
|-7--8-8-8---7--8-8-7------|

|--------------------------|
|--------------------------|
|--------------------------|
|--------------------------|
|-7--8-8-8---7--8-8-7------|
|-5--6-6-6---5--6-6-5------|

|------------------------------------------------------|
|------------------------------------------------------|
|------------------------------------------------------|
|------------------------------------------------------|
|-2--3-3-3---2--3-3-3---2--3-3-3---2--3-3-2------------|
|-0--1-1-1---0--1-1-1---0--1-1-1---0--1-1-0------------|

Thats it! Simple but cool!
Comments and corrections are welcome!
Thanks,Goodbye!
Comments