Misc Computer Games - Doom 3 Theme Chords & Tabs

 

Doom 3 Theme Chords & Tabs

Misc Computer Games Chords & Tabs

Version: 1 Type: Tab 0 ratings
1 star 2 stars 3 stars 4 stars 5 stars
comments

Doom 3 Theme Tab

ABOUT TWEAKER: Tweaker is basically a cover-band that remixes songs from bands such as
POD with a techno twist. You can find this song on the Original Doom3 soundtrack.

Most people have not heard of this band but this is a good song and its fun to play.
E-mail me for tips or corrections at "rudisturbed77@yahoo.com"

x = choke
pm = palm mute and play the notes indicated
hp = hammer pull-off on the3 notes indicated

Tuning: Drop D

MAIN RIFF

E-----------------------------------------------------------------------------]
B-----------------------------------------------------------------------------]
G-----------------------------------------------------------------------------]
D--0---0--pm0-0---0h1p0---0--pm0-8--8--5---5--pm5-5---5h6p5---5--pm5-5---5---3]
A--0---0--pm0-0---0h1p0---0--pm0-8--8--5---5--pm5-5---5h6p5---5--pm5-5---5---3]
D--0---0--pm0-0---0h1p0---0--pm0-8--8--5---5--pm5-5---5h6p5---5--pm5-5---5---3]

Repepat that 3 times then go straight into
[ Tab from: http://www.guitartabs.cc/tabs/m/misc_computer_games/doom_3_theme_tab.html ]
SECONDARY RIFF
E--1-----1-----1----------------]
B--1-----1-----1----------------]
G--1-----1-----1----------------]
D--0-----0-----0-----0---pm0-pm0]
A--0-----0-----0-----0---pm0-pm0]
D--------------------0---pm0-pm0]

do this 2 times then let the three bottom strings sustain open for a little then play
this

THIRD RIFF
E---------------------------------------------------|
B---------------------------------------------------|
G---------------------------------------------------|
D---------------------------------------------------|
A---------------------------------------------------|
D---0-0-0-3-3-3-7-7-7-3-3-3-5-5-5-3-3-3-2-2-2-3-3-3-|
PM: _______________________________________________

play this 3 times, then on the 4th time do not palm mute and then repeat another 4
times but with power chords (all 3 bottom strings)then go back to the main riff 1
more time. The final chord progressions are the secondary riff chords just play them
fast, listen to the song for the beat.

Tabbed by: Nic G.

ROCK ON
Comments