Misc Computer Games - Doom 2 Theme Chords & Tabs

 

Doom 2 Theme Chords & Tabs

Misc Computer Games Chords & Tabs

Version: 1 Type: Bass Tab 0 ratings
1 star 2 stars 3 stars 4 stars 5 stars
comments

Doom 2 Theme Bass Tab

Song Name: Doom II
(From the video game "Doom II" by id Software)
Tabbed By: Jonas Eriksson (basset@limpbizkit.com)

Intro - 1

G|---------------------|
D|---------------------|
A|---------------------|
E|---------------------|
(no bass, only a short drum solo)

Intro - 2
G|---------------------|
D|---------------------|
A|-2-3~~----2-2-3------|
E|------3-2-------3-2~~|

Main
G|-------------------|
D|-------------------|
A|-2-3-----2-3-3~----|
E|-----3-2-------3-2-|
[ Tab from: http://www.guitartabs.cc/tabs/m/misc_computer_games/doom_2_theme_btab.html ]
Interlude
G|----------|
D|----------|
A|-----33-2-|
E|-0-1------|

G|----------------------------|
D|----------------------------|
A|-3-2-0-2-3~~------2-3-------|
E|------------3-2-2-----332~~-|

G|--------------------------------|
D|-----------0~~--------0-0-------|
A|-3------------4-----------42~~3-|
E|---3-2-2-3------2-3-3-----------|

When you have reached this point, just start over from 'Main'

'~' = hold note

Any comments?, suggestions?, corrections (hopefully not)?, just contact me:
basset@limpbizkit.com
Comments