Misc Computer Games - Deus Ex Theme Chords & Tabs

 

Deus Ex Theme Chords & Tabs

Misc Computer Games Chords & Tabs

Version: 1 Type: Tab 0 ratings
1 star 2 stars 3 stars 4 stars 5 stars
comments

Deus Ex Theme Tab

Deus Ex is a masterpiece, and so is it's soundtrack.
This tab can be heard in techno in the main menu of the game. Spaces in the tab
give a rough estimation of the timing of the notes. I have separated this tab
into sections for asthetic appeal so just chain the parts together to get the tune.

e|---------------------------|
b|-----0-1-0-----------------|
g|----------2----------------|
D|-2------------2-3-2--0-----|
A|-----------------------3-2-|
E|---------------------------|
[ Tab from: http://www.guitartabs.cc/tabs/m/misc_computer_games/deus_ex_theme_tab.html ]
e|------------------------------------------------------|
b|------0-1-0-------------------------------------------|
g|------------2------------1------------0---------------|
D|-2--2---------2-3-2--0-----2--2--0--------0--2-3-2--0-|
A|-----------------------3------------3---3-------------|
E|------------------------------------------------------|

e|--------------------1-0-|
b|------------------0-----|
g|----------------1-------|
D|------------3-2---------|
A|-3-2-0-2-3--------------|
E|------------------------|

auto_ejection@hotmail.com
Comments