Misc Comp Games - Tetris Chords & Tabs

 

Tetris Chords & Tabs

Misc Comp Games Chords & Tabs

Version: 1 Type: Tab 0 ratings
1 star 2 stars 3 stars 4 stars 5 stars
comments

Tetris Tab

TITLE:TETRIS
AUTHOR:UNKNOWN

E--------------------------------------------------------------------
A--------------------------------------------------------------------
D--------------------------------------------------------------------
G-------------------2--2-------------------------------2--2----------
B-5--0--1--3--1--0--------1-----3--1--0----1--3--5--1----------------
E----------------------------0---------------------------------------
[ Tab from: http://www.guitartabs.cc/tabs/m/misc_comp_games/tetris_tab.html ]
E--------------------------------------------------------------------
A--------------------------------------------------------------------
D--------------------------------------------------------------------
G----------------------------------------------2--2------------------
B-3-----------------1-----3--1--0--1--3--5--1------------------------
E----1--5--3--1--0-----0---------------------------------------------
(((REPEAT FROM VERY BEGINNING 1 MORE TIME)))

E--------------------------------------------------------------------
A--------------------------------------------------------------------
D----------9--10--7--6-------------9--10-----------------------------
G-9--5--7-----------------9--5--7---------9--14--13------------------
B--------------------------------------------------------------------
E--------------------------------------------------------------------

PLAY IT BACK FROM THE BEGINNING A FEW MORE TIMES...  I FIGURED
THIS OUT BY EAR, SO I STILL HAVE THE REST TO DO...
IF YOU HAVE ANY QUESTIONS E-MAIL ME AT TMADRECK@CWNET.COM
THANKS, AND SEE-YA
Comments