Misc Comp Games - Super Mario Underground Stage Chords & Tabs

 

Super Mario Underground Stage Chords & Tabs

Misc Comp Games Chords & Tabs

Version: 1 Type: Tab 3 ratings
1 star 2 stars 3 stars 4 stars 5 stars
comments

Super Mario Underground Stage Tab

SUPER MARIO BROS. UNDERGROUND THEME

This is bad-ass !!!

|---------|------------------|------------------|
|---------|---1--------------|---1--------------|
|---------|-------2---3------|-------2---3------|
|---------|------------------|------------------|
|---------|-3---0---1--------|-3---0---1--------|
|---------|------------------|------------------|

[ Tab from: http://www.guitartabs.cc/tabs/m/misc_comp_games/super_mario_underground_stage_tab.html ]
|-----0---0--------|-----0---0-----------|
|------------------|---------------------|
|------------------|---------------------|
|---3--------------|---3---------------0-|
|-------5---6------|-------5---6-----6-4-|
|-1----------------|-1-------------------|


|----------------------------|-------------------|
|----------------------------|-------------------|
|-------------------------3--|-1-----------------|
|----1--0-------------4-2-7--|---1---------------|
|-3--------------4--3-8------|------2-1-0--------|
|----------4--3--------------|-------------4-----|

Dark_Magician 2002 (nicks_mem@yahoo.co.uk)	
Comments