Misc Comp Games - Super Mario Brothers Chords & Tabs

 

Super Mario Brothers Chords & Tabs

Misc Comp Games Chords & Tabs

Version: 1 Type: Tab 0 ratings
1 star 2 stars 3 stars 4 stars 5 stars
comments

Super Mario Brothers Tab

1-12-12-12----12-14---------------------------------12-17-13-15-12-------------------------------------------
2-------------13------------13----------------------13---------------------------13-15-12-13---------------------13----
3------------------------12----12----14-16-15-12---------------------------------------------12---14-16-15-12-------
4-----------------------------------14---------------------------------------------------------------14----------------------
5------------------------------------------------------------------------------------------------------------------------------
6------------------------------------------------------------------------------------------------------------------------------

1-12-17-13-15-12-----------15-14-13-10-11-12--------------------15-14-13-10-11-12-20-20-20-15-14-
2---------------------------13-15-12-------------------------------13---13-15----------------------------------------------------
3--------------------------------------------------------------13-14---14--------------------------------------------------------
4--------------------------------------------------------------------------------------------------------------------------------
5--------------------------------------------------------------------------------------------------------------------------------
6--------------------------------------------------------------------------------------------------------------------------------
[ Tab from: http://www.guitartabs.cc/tabs/m/misc_comp_games/super_mario_brothers_tab.html ]
1-13-10-11-12-------------------------------------------------12-------------------------12-12-12---------------12---------------
2-----------------------13---13-15-16-15-13--13-13-13-15---13-------13-13-13-15-----------13-13-13-15---13-----------------------
3----------------13-14---14------------------------------------------14-12----------------------------------------------14-------
4--------------------------------------------------------------------------------------------------------------------------------
5--------------------------------------------------------------------------------------------------------------------------------
6--------------------------------------------------------------------------------------------------------------------------------

1-12-12-12---12-15---12--------------13-13-----------17-15-13-12----------12--------------13-13----------------------------------
2------------13-------------13------------------12—12----------------------13----------13-----------------12-12-18-18------------
3----------------------12------12-12-14-----------------------------------------14-12------12-12-14------------------------------
4--------------------------------------------------------------------------------------------------------------------------------
5--------------------------------------------------------------------------------------------------------------------------------
6--------------------------------------------------------------------------------------------------------------------------------

1-----------------
2-12-18-17-15-13--
3-----------------
4-----------------
5-----------------
6-----------------

Practice It A Few Times And You Will Get It
Comments