Misc Comp Games - Resident Evil 2 Police Station Theme Chords & Tabs

 

Resident Evil 2 Police Station Theme Chords & Tabs

Misc Comp Games Chords & Tabs

Version: 1 Type: Tab 1 rating
1 star 2 stars 3 stars 4 stars 5 stars
comments

Resident Evil 2 Police Station Theme Tab

Resident Evil 2 Police Station Theme
Tabbed By: Paul Edland

This is played in the Police Station. I believe it's the 2nd floor Waiting Room/Save Room
which leads to the hall that has the crashed helicopter at one end and the East Hallway
where you first meet Mr. X at the other.

Enjoy!

LEAD (STAFF #1)
CHORDs (STAFF #2)

RIFF #1
[ Tab from: http://www.guitartabs.cc/tabs/m/misc_comp_games/resident_evil_2_police_station_theme_tab.html ]
E|--------4-----9-----4-----|--5-----2-----4-----0-----|-2-----------------------|
B|--2-----------------------|--------------------------|-------4-----------------|
G|--------------------------|--------------------------|-------------------------|
D|--------------------------|--------------------------|-------------------------|
A|--------------------------|--------------------------|-------------------------|
E|--------------------------|--------------------------|-------------------------|
 |                          |                          |                         |
E|--------------------------|--------------------------|-------------------------|
B|--------------------------|--------------------------|-------------------------|
G|-------------13-----------|-11----------13-----------|-------------------------|
D|-11-----------------------|--------------------------|-13----------------------|
A|-------------11-----------|--9----------11-----------|-------------------------|
E|--9-----------------------|--------------------------|-11----------------------|



RIFF #2

E|--------2-----4-----9-----|--2-----5-----4-----2-----|--4----------------------|
B|--0-----------------------|--------------------------|-------------------------|
G|--------------------------|--------------------------|-------------------------|
D|--------------------------|--------------------------|-------------------------|
A|--------------------------|--------------------------|-------------------------|
E|--------------------------|--------------------------|-------------------------|
 |                          |                          |                         |
E|--------------------------|--------------------------|-------------------------|
B|--------------------------|--------------------------|-------------------------|
G|-------------------13-----|-------11-----------------|-------------------------|
D|-------11-----------------|-------------------13-----|-------------------------|
A|-------------------11-----|--------9-----------------|-------------------------|
E|--------9-----------------|-------------------11-----|-------------------------|

Comments