Misc Comp Games - Nintendo Zelda Theme Chords & Tabs

 

Nintendo Zelda Theme Chords & Tabs

Misc Comp Games Chords & Tabs

Version: 1 Type: Tab 0 ratings
1 star 2 stars 3 stars 4 stars 5 stars
comments

Nintendo Zelda Theme Tab

Title: Zelda 2 Theme
submitted by treyrab
treyrab@hotmail.com

----------------|----------------|----------------|----------------|----------
-11--10---------|-11--10---------|-11--10---------|-11--10---------|----------
---------10-----|---------10-----|---------10-----|---------10-----|----------
-------------10-|-------------10-|-------------10-|-------------10-|----------
----------------|----------------|----------------|----------------|-13--12---
----------------|----------------|----------------|----------------|----------
                                                                              

--------|----------------|----------------|----------------|---------|------|-
--------|----------------|----------------|----------------|-1-----1-|------|-
--------|----------------|----------------|----------------|-2-------|-3----|-
--------|----------------|----------------|----------------|-1--3----|-5----|-
--------|-13--12---------|-13--12---------|-13--12---------|---------|----3-|-
-13--10-|---------13--10-|---------13--10-|---------13--10-|---------|------|-
                                                                              

---------|------------|---------|------|---------|---------|---------|--------
---------|------------|-1--6--4-|-4----|---------|-1-------|---------|--------
-6-----6-|-0----------|-2--2--2-|-0----|-6-----6-|----0----|-5--5--5-|-6--6---
-6--6--6-|-2-----2----|-3-------|-1----|-6--6--6-|-2--2--2-|-7--7--7-|-8--8---
-4--4----|-3--3-----3-|---------|----3-|-4--4----|-3-------|-8--8--8-|-8--8---
---------|------------|-1-------|------|---------|---------|---------|--------
                                                                              
[ Tab from: http://www.guitartabs.cc/tabs/m/misc_comp_games/nintendo_zelda_theme_tab.html ]
---|---------|-----0----|---------|------------|------------|------------|----
---|---------|-----5----|---------|------------|------------|------------|----
-6-|-7--7--7-|-0------3-|-3--2----|------------|------------|------------|-3--
-8-|-9--9--9-|-10-------|-------3-|------------|-1--0-------|------------|----
-8-|-8--8--8-|-8------3-|---------|-3--0--1--3-|-------3--1-|-3--1--0----|----
---|---------|----------|---------|------------|------------|----------1-|----
                                                                              

-------|------------|------------|------------|-------------4-|---------------
-------|------------|------------|------------|-------4--6----|----1----------
--2----|------------|------------|------------|----6----------|-0-------------
-----3-|------------|-1--0-------|------------|-6--6-----6--6-|-2--2-----2----
-------|-3--0--1--3-|-------3--1-|-3--1--0----|-4--4-----4--4-|-3--3--3-------
-------|------------|------------|----------1-|---------------|---------------
                                                                              

---|-------------4-------|------------|-------------4-|------------|-------4--
---|----------4--6-------|-1----------|-------4--6----|----1-------|----------
-0-|----6----------------|----1--0----|----6----------|-0-----0----|----6-----
-2-|-6-----6--------6--6-|-2--2--2--2-|-6--6-----6--6-|-2--2--2--2-|-6--6--6--
-3-|-4-----4--------4--4-|-3--3--3--3-|-4--4-----4--4-|-3--3--3--3-|-4--4--4--
---|---------------------|------------|---------------|------------|----------
                                                                              

-6----|------------|----------------------------------------------------------
------|-1----------|-1--------------------------------------------------------
------|------------|-2--------------------------------------------------------
-6--6-|-2--2--2--2-|-3--------------------------------------------------------
-4--4-|-3--3--3--3-|----------------------------------------------------------
------|------------|-1--------------------------------------------------------
                                                                              
Comments