Misc Comp Games - Lotus Esprit Turbo Chords & Tabs

 

Lotus Esprit Turbo Chords & Tabs

Misc Comp Games Chords & Tabs

Version: 1 Type: Tab 0 ratings
1 star 2 stars 3 stars 4 stars 5 stars
comments

Lotus Esprit Turbo Tab

   
Lotus Esprit Turbo
Tabbed by Peter Blunden 06/02/2002

This is the theme music from Lotus Esprit Turbo challenge on
the Amiga. Its a classic.

Im not sure but i think you have to de-tune half a step.

Bassline - You just repeat this over and over...

Eb ------------------------------
Bb ------------------------------
Gb ------------------------------
Db ------------------------------
Ab --2--2--2--0--2--0-----2----0-
Eb --------------------3-----2---

The lead part is slightly more involved, but still easy when you get into the rhythm
[ Tab from: http://www.guitartabs.cc/tabs/m/misc_comp_games/lotus_esprit_turbo_tab.html ]
Part A: Repeat x2
Eb -------------------------------------------------
Bb -------------------------------------------------
Gb -------------------------------------------------
Db ----------0-----------------0---------4-2-0------
Ab --2-2-2-4---4-2---0-2-----4---4-2-0-2-------4-2--
Eb ----------------2--------------------------------

Part B: Repeat x2
Eb -----------------------------------------------------------
Bb -----------------------------------------------------------
Gb -----------------------------------------------------------
Db --------0-2-0-------2-0-2-3-2-0---0---0---------4-2-0------
Ab --2-2-4-------2---------------------4---4-2-0-2-------4-2--
Eb -----------------------------------------------------------

And thats pretty much it.

PS Go Aussie!
Comments