Misc Comp Games - Final Fantasy 7 Cosmo Canyon Theme Chords & Tabs

 

Final Fantasy 7 Cosmo Canyon Theme Chords & Tabs

Misc Comp Games Chords & Tabs

Version: 1 Type: Tab 2 ratings
1 star 2 stars 3 stars 4 stars 5 stars
comments

Final Fantasy 7 Cosmo Canyon Theme Tab

#-----------------------------------------------------------------------------#
#-- File created with Instab - http://www.pconline.com/~smcarey/instab.html --#
#-----------------------------------------------------------------------------#

Title: Cosmo Canyon Theme
Album: Dunno (Final Fantasy 7)
Transcribed by: Lee Butler
Email: countbutty@hotmail.com

Not a hard peice to learn but good, especially if you have an fx pedal with 
inbuilt drum beats :D (I use drum beat 8 BEAT 3 at 130 bpm).
Standard tuning (EADGBe)



-----------|-------------|-----------|---------------|---------------|--------
-----------|-------------|-----------|---------------|---------------|--------
-----------|-------------|-----------|---------------|---------------|--------
-----------|-------------|-5h7-7-7-7-|---------------|---------------|--------
-5h7-7-7-7-|---5-5h7-7-7-|-----------|---5-5h7-7-7-7-|---5-5h7-7-7-7-|--------
-----------|-7-----------|-----------|-7-------------|-7-------------|--------
                                                                              

-----------|---------------|---------------|---------------|---------------|--
-----------|---------------|---------------|---------------|---------------|--
-----------|---------------|---4-----------|---------------|---------------|--
-----------|-----4h5-5-5-5-|-5---5h7-7-7-7-|-7-------------|---------------|--
-5h7-7-7-7-|-7-5-----------|---------------|---5-5h7-7-7-7-|-7-5-5h7-7-7-7-|--
-----------|---------------|---------------|---------------|---------------|--
                                                                              

---------------|---------------|---------------|---------------|--------------
---------------|---------------|---------------|---------------|--------------
---------------|---------------|---4-----------|---------------|--------------
---------------|-----4h5-5-5-5-|-5---5h7-7-7-7-|-7-------------|--------------
-7-5-5h7-7-7-7-|-7-5-----------|---------------|---5-5h7-7-7-7-|-7-5-5h7-7-7--
---------------|---------------|---------------|---------------|--------------
                                                                              

---|---------------|---------------|---------------|---------------|----------
---|---------------|---------------|---------------|---------------|----------
---|---------------|---------------|---------------|---------------|----------
---|---------------|---------------|-----5h7-7-7-7-|-7-9-4h5-5-5-5-|----------
-7-|-7-5-5h7-7-7-7-|-7-5-5h7-7-7-7-|-7-5-----------|---------------|---5-5h7--
---|---------------|---------------|---------------|---------------|-7--------
                                                                              

-------|---------------|------------------------------------------------------
-------|---------------|------------------------------------------------------
-------|---------------|------------------------------------------------------
-------|---------------|------------------------------------------------------
-7-7-7-|---5-5h7-7-7-7-|---5--------1vvvvv-3--3-3--3--3-3--3--3-3--3--3-3--3--
-------|-7-------------|-7---3vvvvv-------------------------------------------
                                                                              

---------------------|-----------|---------------|---------------|------------
---------------------|-----------|---------------|---------------|------------
---------------------|-----------|---------------|---------------|------------
---------------------|-----------|---------------|---------------|------------
-3-3--3--3-3--3--3-3-|-5h7-7-7-7-|---5-5h7-7-7-7-|---5-5h7-7-7-7-|---5-5h7-7--
---------------------|-----------|-7-------------|-7-------------|-7----------
                                                                              
[ Tab from: http://www.guitartabs.cc/tabs/m/misc_comp_games/final_fantasy_7_cosmo_canyon_theme_tab.html ]
-----|------------------------------------------------------------------------
-----|------------------------------------------------------------------------
-----|------------------------------------------------------------------------
-----|------------------------------------------------------------------------
-7-7-|------------------------------------------------------------------------
-----|------------------------------------------------------------------------
                                                                              

--------------------|--------------------------------|------------------------
-----------------8v-|-8-10-8-10/12-12-12-10-8-10-12v-|-10v-8-10-12v-8---------
-8h9-8h9-8h9-7-9----|--------------------------------|----------------9-9v----
--------------------|--------------------------------|------------------------
--------------------|--------------------------------|------------------------
--------------------|--------------------------------|------------------------
                                                                              

---------------|-------|----------------------|-------------------------------
---------------|-------|-0-----------------8v-|-8-10-8-10/12-12-12-10-8-10----
-7-9/12-9-7-9v-|-------|---7-9-8h9-8h9-7-9----|-------------------------------
---------------|-------|----------------------|-------------------------------
---------------|-------|----------------------|-------------------------------
---------------|-------|----------------------|-------------------------------
                                                                              

-----|-----------------------------------|-------|----------------14-15-12----
-12v-|-10v-8-10-12v-8--------------------|-------|-------15-17-17-------------
-----|----------------9-9v-7-9/12-9-7-9v-|-------|-14/16----------------------
-----|-----------------------------------|-------|----------------------------
-----|-----------------------------------|-------|----------------------------
-----|-----------------------------------|-------|----------------------------
                                                                              

-----|----------------15-14-12-----|----------------------------------|-------
-15v-|-------15-17-17----------15v-|----------------------------------|-------
-----|-14/16-----------------------|-14v-12-14-16v-17v-16-17-19-16vvv-|-------
-----|-----------------------------|----------------------------------|-------
-----|-----------------------------|----------------------------------|-------
-----|-----------------------------|----------------------------------|-------
                                                                              

----------------14-15-12-----|----------------15-14-12-----|------------------
-------15-17-17----------15v-|-------15-17-17----------15v-|------------------
-14/16-----------------------|-14/16-----------------------|-14v-12-14-16v----
-----------------------------|-----------------------------|------------------
-----------------------------|-----------------------------|------------------
-----------------------------|-----------------------------|------------------
                                                                              

-----------------------------|---------------|--------------------------------
-----------------------------|-19b-19-17-17v-|--------------------------------
-17v-16-17-19-21vvvvvvvvvvvv-|---------------|--------------------------------
-----------------------------|---------------|--------------------------------
-----------------------------|---------------|--------------------------------
-----------------------------|---------------|--------------------------------
                                                                              

Comments