Misc Comp Games - Final Fantasy 2 Prologue Chords & Tabs

 

Final Fantasy 2 Prologue Chords & Tabs

Misc Comp Games Chords & Tabs

Version: 1 Type: Tab 0 ratings
1 star 2 stars 3 stars 4 stars 5 stars
comments

Final Fantasy 2 Prologue Tab

Tab Name: Prologue
Original Composition: Nobuo Uematsu
Game:FF4
Tabber: TundraWolf_
E-Mail: TundraWolf_@yahoo.com
IF ANYTHING in this is wrong, I was listening to Metallica, Kirk probably was doing a solo, so it is his fault if something is wrong!

Note Things:
= let the note ring
X=Notes are hit(on second guitar) after the 1st guitar
??= goes to high for my guitar, if you have more frets than me, try 23
&= Break your guitar, then leap off stage into the crowd


1st guitar
e|-1--6--8--1-|-11---10--8--|-6--5-6-8--6-|-6-----5-----|-3--8--10--3-|
b|------------|-------------|-------------|-------------|-------------|
g|------------|-------------|-------------|-------------|-------------|
D|------------|-------------|-------------|-------------|-------------|
A|------------|-------------|-------------|-------------|-------------|
E|------------|-------------|-------------|-------------|-------------|

2nd guitar
e|-------------|-------------|-------------|-------------|-------------|
b|-------------|-------------|-------------|-------------|-------------|
g|-------------|-------------|-------------|-------------|-------------|
D|-------------|-------------|-------------|-------------|-------------|
A|-------------|-------------|-------------|-------------|-------------|
E|-------------|-------------|-------------|-------------|-------------|



1st guitar
e|-13--11--10--|-8-7-10-8--3-|-10-----8----|-1--6--8--1--|-11---10--8--|
b|-------------|-------------|-------------|-------------|-------------|
g|-------------|-------------|-------------|-------------|-------------|
D|-------------|-------------|-------------|-------------|-------------|
A|-------------|-------------|-------------|-------------|-------------|
E|-------------|-------------|-------------|-------------|-------------|


2nd guitar(play Exactly with the note on the first guitar!!!!!)
e|-------------|-------------|-------------|-------------|-------------|
b|-------------|-------------|-------------|-------------|-------------|
g|-------------|-------------|-------------|-3-----2-----|-0-----------|
D|-------------|-------------|-------------|-------------|-------3-----|
A|-------------|-------------|-------------|-------------|-------------|
E|-------------|-------------|-------------|-------------|-------------|



1st Guitar
e|-6--5-6-8-6--|-6-----5-----|-3--8--10--3-|-13--11--10--|-8--7-10-8-3-|
b|-------------|-------------|-------------|-------------|-------------|
g|-------------|-------------|-------------|-------------|-------------|
D|-------------|-------------|-------------|-------------|-------------|
A|-------------|-------------|-------------|-------------|-------------|
E|-------------|-------------|-------------|-------------|-------------|

2nd Guitar
e|-------------|-------------|-------------|-------------|-------------|
b|-------------|-------------|-4------3----|-1----0------|-1-----------|
g|-------------|-------------|-------------|-------------|---------3---|
D|-1------2----|-3-----------|-------------|-------------|-------------|
A|-------------|-------------|-------------|-------------|-------------|
E|-------------|-------------|-------------|-------------|-------------|




1st Guitar
e|-10-------8--|-15-------15-|-13-------10-|-11--11-10--8--7-|-8--10--11-13|
b|-------------|-11-------11-|-15-------11-|----13----|----------|
g|-------------|-------------|-------------|-----------------|-------------|
D|-------------|-------------|-------------|-----------------|-------------|
A|-------------|-------------|-------------|-----------------|-------------|
E|-------------|-------------|-------------|-----------------|-------------|


2nd Guitar
e|-------------|-------------|----1--------|-----------------|-------------|
b|-------------|-------------|-------3-----|-----------------|1------------|
g|-2-----------|----------0-2|-3--------3--|-1-----------0---|-----0-------|
D|----------3--|-1-1-0-1-3---|-------------|-----------------|---------1---|
A|-------------|-------------|-------------|-----------------|------------3|
E|-------------|-------------|-------------|-----------------|-------------|




1st Guitar                    Here is more 
e|-16-----16---|-15-------11-|-13-13-14-13-13-14-|-13-11--10-8-|-1--6---8--1-|
b|-18-----18---|-16-------13-|---11---11-|-----|-----1-|
g|-------------|-------------|-------------------|-------------|-------|
D|-------------|-------------|-------------------|-------------|-------------|
A|-------------|-------------|-------------------|-------------|-------------|
E|-------------|-------------|-------------------|-------------|-------------|


2nd Guitar 
e|-------------|---------1-3-|-2---------2-------|-1-----------|-------------|
b|-------------|-1--1-3-4----|-------------------|----------|-------------|
g|-------0-1-3-|-------------|-------------------|----------|-3------2----|
D|----1-3------|-------------|-------------------|-----------3-|-------------|
A|-4-4---------|-------------|-------------------|-------------|-1------0----|
E|-------------|-------------|-------------------|-------------|-------------|


[ Tab from: http://www.guitartabs.cc/tabs/m/misc_comp_games/final_fantasy_2_prologue_tab.html ]
1st Guitar
e|-11----10--8-|-6--5--6--8-6-|---6-----5---|-3--8--10---7|-13---11--10-|
b|-11------|----8-8-|---6-----6---|-----8|-13------|
g|--8-------|--5---|---5-----5---|----12----|-12------|
D|-------------|--------------|-------------|-------------|-------------|
A|-------------|--------------|-------------|-------------|-------------|
E|-------------|--------------|-------------|-------------|-------------|

2nd Guitar
e|-------------|--------------|-------------|-------------|-------------|
b|-------------|--------------|-------------|--------3----|-1-----0-----|
g|-0-----------|--------------|-------------|-------------|-------------|
D|--------3----|-1--------2---|-3-------3---|-1------0----|-------------|
A|-3-----------|--------------|------3------|-------------|-3-----2-----|
E|--------1----|----------0---|-1-----------|-------------|-------------|



1st Guitar
e|-8--7--10--8--15|-15---17-20--|-18--6-6-6--|-7--7-7---|
b|----------|-13---16-19--|-18--6-6-6--|-7--8-7---|
g|----------|-12---14-17--|-19--7-7-7--|-8--8-8---|
D|----------------|-------------|-20------------|-------------|
A|----------------|-------------|---------------|-------------|
E|----------------|-------------|---------------|-------------|

2nd Guitar                                     X             X
e|----------------|-------------|---------------|-------------|
b|-1--------------|-------------|---------------|-------------|
g|-----------3----|-2--0--------|---------------|-------------|
D|----------------|-------4-----|-3------------3|-3----------3|
A|-3---------1----|-0-----------|---------------|-------------|
E|----------------|----3--2-----|-1------------1|-1----------1|




1st Guitar
e|----8-8-8---|----9--9--9-10----|-6-11-13--6--|-16---15--13-|
b|----8-8-8---|----9--9--9--9--3-|-8-11-15--6--|-16---15--15-|
g|----9-9-9--|---10-10-10-10--1-|-8-12-15--7--|-17---15--15-|
D|---------------|----------------3-|-8-13-15--8--|-18---17--15-|
A|---------------|------------------|-------------|-------------|
E|---------------|------------------|-------------|-------------|

2nd Guitar
e|---------------|------------------|-------------|-------------|
b|---------------|------------------|-------------|-------------|
g|---------------|-------------3----|-------------|-------------|
D|-3------------3|3---3--3--3-------|-1-----0-----|-------------|
A|---------------|-------------1--1-|-------------|-3-----1-----|
E|-1------------1|1---1--1--1-------|-------------|-------------|




1st Guitar
e|-11-10-11-13-11-|-11------10--|-8-13-15-8---|-18----16-15-|-13-12-15-13-8|
b|-13--3--4-13-13-|-11------11--|-9-13-17-8---|-16----14-14-|-13--5--8-13-1|
g|-13-------10--8-|--8-------7--|10-13-17-9---|-15----13-12-|-13-------14--|
D|-13-------------|-------------|10-15-17-10--|-------------|-15-------15--|
A|----------------|-------------|-------------|-------------|--------------|
E|----------------|-------------|-------------|-------------|--------------|

2nd Guitar
e|----------------|-------------|-------------|-------------|--------------|
b|----------------|-------------|-------------|-------------|--------------|
g|----------------|----------3--|-1-----0-----|-------------|--------------|
D|----------------|------3------|-------------|-3------2----|-3---------1--|
A|-----------0--3-|-1--------1--|-------------|-------------|--------------|
E|-4--------------|------1------|-4-----3-----|-1------0----|-1------------|



1st Guitar
e|-15------13--|-20-------20--|-18-------15-|-16-16-15-13-12|-13-15-16-18-|
b|-15------15--|-21-------21--|-20-------16-|-18-18--8-11-11|-13--8--9-11-|
g|-15------15--|-20-------20--|-20-------15-|-18-18----10--9|-13----------|
D|-17------15--|--------------|-20-------17-|-18-18---------|-15----------|
A|-------------|--------------|-------------|---------------|-------------|
E|-------------|--------------|-------------|---------------|-------------|

2nd Guitar
e|-------------|--------------|-------------|---------------|-------------|
b|-------------|--------------|-------------|---------------|-------------|
g|-------------|--------------|----3---0----|---------------|-------------|
D|-0-----------|--------------|--1--------1-|---------------|-3-----------|
A|------3---1--|---------1-3-0|----1--------|-4---------3---|-----3-------|
E|-------------|-4--4-3-4-----|--------3----|---------------|-1------4--1-|



1st Guitar                                                          &&!!
e|-21-------21---|-20-------16-|-18-18-19-18-18-19-|-18--16--15--13-||
b|-??-------??---|-21-------18-|-16-16-16-16-16-16-|-16---9--15--15-||
g|-??-------??---|----------17-|-15-15-16-15-15-16-|-15------12--15-||
D|-??-------??---|----------18-|-------------------|-------------15-||
A|---------------|-------------|-------------------|----------------||
E|---------------|-------------|-------------------|----------------||

2nd Guitar                                                          &&!!
e|---------------|-------------|-------------------|----------------||
b|---------------|-----------1-|-0-----------------|----------------||
d|---------------|-----0-1-3---|-------------------|-3--------------||
D|--------------1|-3-3---------|-------------------|----------------||
A|-------1-3-4---|---------1-3-|-2---------2-------|-1--------1---1-||
E|-2-2-4---------|-1-1-3-4-----|-------------------|----------------||













































Comments