Misc Comp Games - Ff8 Eyes On Me Chords & Tabs

 

Ff8 Eyes On Me Chords & Tabs

Misc Comp Games Chords & Tabs

Version: 1 Type: Tab 3 ratings
1 star 2 stars 3 stars 4 stars 5 stars
comments

Ff8 Eyes On Me Tab

Final Fantasy 8 theme: Eyes On Me

This is 100% right, i just translated the melody from the official
piano sheet music i found online into guitar tab.

email me with any comments at guitarium@hotmail.com

E ------------------------------------
B ------------------------------------
G ------------------------------------
D -----------2--5--2-----2------------
A -----3--5-----------5-----3-----3--5
E --3--------------------------5------

E ------------------------------------
B ------------------------------------
G -----------------4--4--5--2-----2---
D -----------2--5--------------5----5-
A -----3--5---------------------------
E --3---------------------------------

E ------------------------------------------------
B ------------------------------------------------
G -----5--5--4--2--2-----------2--2---------------
D --5-----------------5--2--5--------5--3--3-----2
A --------------------------------------------5---
E ------------------------------------------------

E ------------------------------------------------
B ------------------------------------------------
G ------------------------------------------------
D --2-2-----2--3--2-----------------------2--5----
A -------5-----------5--5--3-----3--3--5--------5-
E -----------------------------5------------------

E ------------------------------------
B ------------------------------------
G ------------------------------------
D -----------2--5--2-----2------------
A -----3--5-----------5-----3-----3--5
E --3--------------------------5------
[ Tab from: http://www.guitartabs.cc/tabs/m/misc_comp_games/ff8_eyes_on_me_tab.html ]
E ------------------------------------
B ------------------------------------
G -----------------4--4--5--2-----2---
D -----------2--5--------------5-----5
A -----3--5---------------------------
E --3---------------------------------

E ------------------------------------------------
B ------------------------------------------------
G -----5--5--4--2--2-----------2--2---------------
D --5-----------------5--2--5--------5--3-----2---
A -----------------------------------------3-----5
E ------------------------------------------------

E ------------------------------------
B ------------------------------------
G ------------------------------------
D -----------2--3--5--5--3-----2------
A -----3--5-----------------3-----5--3
E --3---------------------------------

E ------------------------------------
B ------------------------------------
G -----------4--2--2--2--4--5--2------
D -----2--5-----------------------5--5
A --3---------------------------------
E ------------------------------------

E ------------------------------------------------------------
B ------------------------------------------------------------
G -----------------------------2--2--------------------4--2--2
D --2--2--3--5--3--3--3--3--5--------5--5--------2--5---------
A -----------------------------------------3--3---------------
E ------------------------------------------------------------

E ------------------------------------------------------------------
B ------------------------------------------------------------------
G -----2--4--5--4-----4--2-----------5------------------------------
D --3--------------5--------5--5--3-----3--------2--2---------------
A -----------------------------------------3--5--------5--3--2--5--3
E ------------------------------------------------------------------

theres an instrumental bit then the last four 4 bits are repeated twice i think.
thats all there is to the melody, its a really nice song.
Comments