Misc Comp Games - Chrono Trigger Chords & Tabs

 

Chrono Trigger Chords & Tabs

Misc Comp Games Chords & Tabs

Version: 1 Type: Tab 0 ratings
1 star 2 stars 3 stars 4 stars 5 stars
comments

Chrono Trigger Tab

#-----------------------------------------------------------------------------#
#-- File created with Instab - http://www.pconline.com/~smcarey/instab.html --#
#-----------------------------------------------------------------------------#

Author/Artist: Nobuo Uematsu
Title: Truce Villiage
Album: Chrono Trigger
Transcribed by: Jarrok Klaggen
Email: jarrok83@hotmail.com

Ok, this is the tab for Crono's Villiage. It's a bit tricky to pick out in 
some parts, but keep at it and you should be able to pick up on 
certain "trick" places pretty quickly. It really isn't a hard tune to
play. Listen to the midi a few times or the real thing if you have
it. Enjoy!

-15-13-12-10-13-12-10-8-|-8-10-12-10--------------|---12-13-12-10-8-|-15---10-
------------------------|---------------10-10--12-|-8---------------|---------
------------------------|-------------------------|-----------------|---------
------------------------|-------------------------|-----------------|---------
------------------------|-------------------------|-----------------|---------
------------------------|-------------------------|-----------------|---------
                                                                              

-10-|---12-13-12-10-8-|-15---17-19-|-20-19-17-15-12-|-17-15-13-12-10-|-8------
----|-8---------------|------------|----------------|----------------|---12---
----|-----------------|------------|----------------|----------------|--------
----|-----------------|------------|----------------|----------------|--------
----|-----------------|------------|----------------|----------------|--------
----|-----------------|------------|----------------|----------------|--------
                                                                              
[ Tab from: http://www.guitartabs.cc/tabs/m/misc_comp_games/chrono_trigger_tab.html ]
-8-12-10----8-|-8----10---15p17-15-17-15-10-13-|-13-12-10-9-10-12-|-13-12-10--
---------10---|--------------------------------|------------------|-----------
--------------|--------------------------------|------------------|-----------
--------------|--------------------------------|------------------|-----------
--------------|--------------------------------|------------------|-----------
--------------|--------------------------------|------------------|-----------
                                                                              

-8-10-8---------|---12-13-12-10-8-|-15-10-10---|---12-13-12-10-8-|-15-----17--
----------------|-8---------------|------------|-8---------------|------------
----------------|-----------------|------------|-----------------|------------
----------------|-----------------|------------|-----------------|------------
----------------|-----------------|------------|-----------------|------------
----------------|-----------------|------------|-----------------|------------
                                                                              

-19-|-20-19-17-15-12-|-17-15-13-12-10-|-8-7-8-12-10----8-|-8---10-15p17-15----
----|----------------|----------------|-------------10---|--------------------
----|----------------|----------------|------------------|--------------------
----|----------------|----------------|------------------|--------------------
----|----------------|----------------|------------------|--------------------
----|----------------|----------------|------------------|--------------------
                                                                              

-17-15----13-|-13-12-10-9-10-12-|-13-12-10-8-10-|-8-------12p13-12-10-8-10-|--
-------15----|------------------|---------------|--------------------------|--
-------------|------------------|---------------|--------------------------|--
-------------|------------------|---------------|--------------------------|--
-------------|------------------|---------------|--------------------------|--
-------------|------------------|---------------|--------------------------|--
                                                                              

-8-----------|----------------------------------------------------------------
-------------|----------------------------------------------------------------
-------------|----------------------------------------------------------------
-------------|----------------------------------------------------------------
-------------|----------------------------------------------------------------
-------------|----------------------------------------------------------------
                                                                              

Comments