Misc Classical - Austrius Chords & Tabs

 

Austrius Chords & Tabs

Misc Classical Chords & Tabs

Version: 1 Type: Tab 1 rating
1 star 2 stars 3 stars 4 stars 5 stars
comments

Austrius Tab

SONG: AUSTRIUS
	STANDARD TUNING..STRING 1E IS PLAYED AFTER EVERY NOTE PLAYED..WHEN YOU SEE ^ OR ^ MEANS THET THAT FINGER IS USED                                       
                     1    2                                  
FOR THAT NOTE..
1E:--0--0--0--0--0--0-:--0--0--0--0--0--0-:--0--0--0--0--0--0-:-
2B:-------------------:-------------------:-------------------:-
3G:-------------------:-------------------:-------------------:-
4D:----2--3--0--2-----:----2--3--0--2-----:----2--3--0--2-----:-
5A:-0--------------3--:-0--------------3--:-0--------------3--:-
6E:-------------------:-------------------:-------------------:-



1E:--0--0--0--0--0--0-:--0--0--0--0--0--0-:--0--0--0--0--0--0-:-
2B:-------------------:-------------------:-------------------:-
3G:-------------------:-------------------:-------------------:-
4D:-0--------0--------:----2--3--0--2-----:----2--3--0--2-----:-
5A:----2--3-----2--3--:-0--------------3--:-0--------------3--:-
6E:-------------------:-------------------:-------------------:-


1E:--0--0--0--0--0--0-:--0--0--0--0--0--0-:--0--0--0--0--0--0-:-
2B:-------------------:-------------------:-------------------:-
3G:-------------------:-------------------:-------------------:-
4D:----2--3--0--2-----:-0-----------------:----2--3--0--2-----:-
5A:-0--------------3--:----2--3--0--------:----------------2--:-
6E:-------------------:-------------3--1--:-0-----------------:-
                                                        ^  ^    
                                                        2  1HOLD  
[ Tab from: http://www.guitartabs.cc/tabs/m/misc_classical/austrius_tab.html ]
1E:--0--0--0--0--0--0-:--0--0--0--0--0--0-:--0--0--0--0--0--0-:-
2B:-------------------:-------------------:-------------------:-
3G:-------------------:----------------0--:-------------------:-
4D:----2--3--0--2-----:-------0--2--3-----:-2--3--0--2--------:-
5A:----------------2--:----2--------------:-------------3--2--:-
6E:-0-----------------:-0-----------------:-------------------:-
                   ^       ^                               ^    
                   1HOLD   1HOLD                           1HOLD


1E:--0--0--0--0--0--0-:--0--0--0--0--0--0-:--0--0--0--0--0--0-:-
2B:-------------------:-------------------:-------------------:-
3G:-------------------:-------------------:-------------0-----:-
4D:----2--3--0--2-----:----2--3--0--2-----:----0--2--3-----2--:-
5A:----------------2--:----------------2--:-------------------:-
6E:-0-----------------:-0-----------------:-0-----------------:-
                   ^                   ^                       
                   1                   1                       
1E:--0--0--0--0--0--0-:-------------------:-------------------:-
2B:-------------------:-------------------:-------------------:-
3G:-------------------:-------------------:-------------------:-
4D:-3--0--2-----0-----:-------------------:-------------------:-
5A:----------3-----2--:-0-----------------:-------------------:-
6E:-------------------:-------------------:-------------------:-
                   ^                                             
                   1HOLD                                         
Comments