Misc Christmas - What Child Is This Chords & Tabs

 

What Child Is This Chords & Tabs

Misc Christmas Chords & Tabs

Version: 6 Type: Tab 0 ratings
1 star 2 stars 3 stars 4 stars 5 stars
comments

What Child Is This Tab

   
-------------------------------------------------------------------------------
			    What Child is This?
-------------------------------------------------------------------------------

Tabbed by: guitargirly730
Email:bootyscratcher@hotmail.com

Tuning: Standard



         Am                G                 Am                E
|-----|--------0--1--0--|-----------------|-----------------|--------------
|-----|--1--3-----------|--3--0--------0--|--1--------------|--0-----------|
|--2--|-----------------|--------0--2-----|-----2--2--1--2--|-----1-----2--|
|-----|-----------------|-----------------|-----------------|--------2-----|
|-----|--0-----0--------|-----------------|--0-----0--------|--2-----------|
|-----|-----------------|--3-----3--------|-----------------|--------0-----|

   Am                G                 Am       E           Am            
|--------0--1--0--|-----------------|--------------------|-----------|  
|--1--3-----------|--3--0--------0--|--1--0--------------|-----------| 
|-----------------|--------0--2-----|--------2--1-----1--|--2--2--2--| 
|-----------------|-----------------|--------------4-----|-----------|  
|--0-----0--------|-----------------|--0-----0--2--------|--0-----0--|  
|-----------------|--3-----3--------|--------------------|-----------| 

   C              G                 Am                E
|--3--3--2--0--|-----------------|-----------------|-----------|
|--------------|--3--0--------0--|--1--------------|--0--------|
|--------------|--------0--2-----|-----2--2--1--2--|-----1-----|
|--------------|-----------------|-----------------|--------2--|
|--3--3--------|-----------------|--0-----0--------|--2--------|
|--------------|--3-----3--------|-----------------|--------0--|
[ Tab from: http://www.guitartabs.cc/tabs/m/misc_christmas/what_child_is_this_tab_ver_6.html ]
   C              G                 Am       E           Am            
|--3--3--2--0--|-----------------|--------------------|--------| 
|--------------|--3--0--------0--|--1--0--------------|--------| 
|--------------|--------0--2-----|--------2--1-----1--|--2--2--| 
|--------------|-----------------|--------------4-----|--------|  
|--3--3--------|-----------------|--0-----0-----------|--0--0--|  
|--------------|--3-----3--------|-----------0--------|--------| 


Here's a much more simple version



e|-----------------------------------------------------------------------|
B|---------------0---1---0-----------------------------------------------|
G|-------0---2---------------2-------------------0-----------------------|
D|---2---------------------------4---0---2---4-------2---2---1---2-------|
A|-----------------------------------------------------------------------|
E|-----------------------------------------------------------------------|

e|-----------------------------------------------------------------------|
B|---------------------------0---1---0-----------------------------------|
G|-------------------0---2---------------2-------------------0-----------|
D|---4---1-------2---------------------------4---0---2---4-------4-------|
A|-----------2-----------------------------------------------------------|
E|-----------------------------------------------------------------------|

e|-----------------------------------------------------------------------|
B|---------------------------3---3---2---0-------------------------------|
G|-------------------------------------------2-------------------0-------|
D|---2---1-------1---2---2-----------------------4---0---2---4-----------|
A|-----------4-----------------------------------------------------------|
E|-----------------------------------------------------------------------|

e|-----------------------------------------------------------------------|
B|-------------------------------3---3---2---0---------------------------|
G|-----------------------------------------------2-----------------------|
D|---2---2---1---2---4---1---------------------------4---0---2-----------|
A|---------------------------2-------------------------------------------|
E|-----------------------------------------------------------------------|

e|-----------------------------------------------------------------------|
B|-----------------------------------------------------------------------|
G|-------0---------------------------------------------------------------|
D|---4-------4---2---1-------1---2---2-----------------------------------|
A|-----------------------4-----------------------------------------------|
E|-----------------------------------------------------------------------|

Any comments or anything just email me. Enjoy!
Comments