Misc Christmas - Silent Night Chords & Tabs

 

Silent Night Chords & Tabs

Misc Christmas Chords & Tabs

Version: 8 Type: Tab 0 ratings
1 star 2 stars 3 stars 4 stars 5 stars
comments

Silent Night Tab

heres an easy version of Silent Night. you can write it in music notation too. Have fun!

e--------------------------------------|
b-----------------------3-3-0--1-1-----|
g--0-2-0-----0-2-0-----------------0---|
d---------2---------2------------------|
a--------------------------------------|
e--------------------------------------|
[ Tab from: http://www.guitartabs.cc/tabs/m/misc_christmas/silent_night_tab_ver_8.html ]
e------------------------------------------|
b------1-0-----------------1-0-------------|
g--2-2-----2-0-2-0-----2-2-----2-0-2-0-----|
d------------------2-------------------2---|
a------------------------------------------|
e------------------------------------------|

e-----1-------0--|
b-3-3---3-0-1----|
g----------------|
d----------------|
a----------------|
e----------------|

e----------------|
b-1--------------|
g---0---0--------|
d-----2---3-0----|
a-------------3--|
e----------------|

thats Silent Night its a great song to play around with you can add disrtotion or wah in 
places to make it sound cool.

tabbed by HiPPie JoNes
Comments