Misc Christmas - Silent Night Chords & Tabs

 

Silent Night Chords & Tabs

Misc Christmas Chords & Tabs

Version: 7 Type: Chords 0 ratings
1 star 2 stars 3 stars 4 stars 5 stars
comments

Silent Night Chords

Misc Christmas Song
Silent night - Chords

Standard Tuning (EADGBE)

   silent night     holy  night
E|-0--0-0---0------0-0-0---0----
B|-3--5-3---0------3-5-3---0----
G|-0--0-0---0------0-0-0---0----
D|-0--0-0---0------0-0-0---0----
A|-2--2-2---2------2-2-2---2----
E|-3--3-3---3------3-3-3---3----

  all is calm  all is bright
E|-5--5--1------3--3---0-------
B|-2--2--2------x--x---3-------
G|-2--2--1------4--4---0-------
D|-2--2--0-------------0-------
A|---------------------2-------
E|---------------------3-------
[ Tab from: http://www.guitartabs.cc/tabs/m/misc_christmas/silent_night_crd_ver_7.html ]
round the virgin mother and child
E|-0--0---3-0-0--0--0---0---0---
B|-1--1---1-1-0--3--5---3---0---
G|-0--0---0-0-0--0--0---0---0---
D|-2--2---2-2-2--0--0---0---0---
A|-3--3---3-3-3--2--2---2---2---
E|-0--0---0-0-0--3--3---3---3---

   holy infant so tender and mild
E|-0--0---3-0--0--0--0---0---0---
B|-1--1---1-1--0--3--5---3---0---
G|-0--0---0-0--0--0--0---0---0---
D|-2--2---2-2--2--0--0---0---0---
A|-3--3---3-3--3--2--2---2---2---
E|-0--0---0-0--0--3--3---3---3---

sleep in heavanly peace sleep in heavenly peace
E|5---5--8-5-2----3--7--3-0---0--0-0-0----3----
B|2---2--5-2-1----0--4--3-3---0--3-1-1----3----
G|2---2--5-2-2----0--4--0-0---0--0-0-2----0----
D|2---2--5-2-0----0--4--0-0---0--0-0-0----0----
A|----------------------2-2---2--2-2-0----2----
E|----------------------3-3---3--3-0-0----3----

enjoy:
Wendell T. Wolf
Comments