Misc Christmas - Silent Night Bluegrass Chords & Tabs

 

Silent Night Bluegrass Chords & Tabs

Misc Christmas Chords & Tabs

Version: 1 Type: Tab 0 ratings
1 star 2 stars 3 stars 4 stars 5 stars
comments

Silent Night Bluegrass Tab

Bluegrass Silent Night --

E-------------0------0-----------------0--------0-----------------
A-------------1-------1----------------1-------1----3--3--0-------
D-0--0h2-0----0--------0---0--0h2-0----0------0-----0--0--0-------
G-2-----------0h2----------2-----------0h2----------0--0--0-------
B-3-----------3------------3-----------3------------2--2--2-------
e---------------------------------------------------3--3--3-------
[ Tab from: http://www.guitartabs.cc/tabs/m/misc_christmas/silent_night_bluegrass_tab.html ]
E------------------------5--5--8--7--5---3--5--3--0---------------
A-1--1-------------------6--6--6--6--6---5--5--5--5---------------
D-0--0--0----0---0---0---5--5--5--5--5---5--5--5--5----0---0---0--
G-2--2--2---------------------------------------------------------
B-3--3--3---3-3/5-5/7--------------------------------3---2---0----
e-----------------------------------------------------------------

E-------------------0---------------------------------------------
A-3--3--3--3p0---1--1--1-----------------1--1---------------------
D-0--0--0--0-----0--0--0--0----0---------0--0---------------------
G-0--0--0--0-----2--2--2----2--0---3-0---2--2---------------------
B-2--2--2--2-----3--3--3-------2---------3--3---------------------
e-------3----------------------3------------3---------------------

So that's it!  Have fun and have a jazzy holiday!
Comments