Misc Christmas - Oh Come All Ye Faithful Chords & Tabs

 

Oh Come All Ye Faithful Chords & Tabs

Misc Christmas Chords & Tabs

Version: 1 Type: Bass Tab 0 ratings
1 star 2 stars 3 stars 4 stars 5 stars
comments

Oh Come All Ye Faithful Bass Tab

Song: Oh Come All Ye Faithful
Artist: Christmas
Album: Your Local Hymn Book
Tabbed by: Stephen Ricks


My first tab!
This can be played on either the top or the bottom two strings, your call.
I'm sure you can figure out the timing.  I'd be happy to improve it.
E-mail suggestions/corrections/improvements to slutpanda@hotmail.com


G:---0---0-------0---2-------4---2---4---5---4---2---|
D:-----------0-----------0---------------------------|
A:---------------------------------------------------|
E:---------------------------------------------------|
[ Tab from: http://www.guitartabs.cc/tabs/m/misc_christmas/oh_come_all_ye_faithful_btab.html ]
G:---0---0---------------0---2---4-------------------|
D:-----------4---2---4---------------4---2---0---0---|
A:---------------------------------------------------|
E:---------------------------------------------------|

G:---7---5---4---5---4---2---4---0---2---------------|
D:---------------------------------------4---2---0---|
A:---------------------------------------------------|
E:---------------------------------------------------|

G:---0---0-------0---2---0-------|
D:-----------4---------------0---|
A:-------------------------------|
E:-------------------------------|

G:---4---4---2---4---5---4---2---|
D:-------------------------------|
A:-------------------------------|
E:-------------------------------|

G:---4---5---4---2---0-------0---5---4---2---0---0---|
D:-----------------------4---------------------------|
A:---------------------------------------------------|
E:---------------------------------------------------|
Comments