Misc Christmas - Jingle Bells Chords & Tabs

 

Jingle Bells Chords & Tabs

Misc Christmas Chords & Tabs

Version: 1 Type: Bass Tab 0 ratings
1 star 2 stars 3 stars 4 stars 5 stars
comments

Jingle Bells Bass Tab

Jingle Bells
Tabbed By Lazo Kotsios
standard 5 string tuning
 
G|--------------------------------------------------------|
D|--------------------------------------------------------|
A|-----------------2---------0-0-0--0-0-----------------2-|
E|-4-4-4--4-4-4--4---0--2-4-------------4-4-4-4-2-2-4-2---|
B|--------------------------------------------------------|
 
G|------------------------------------------------------|
D|------------------------------------------------------|
A|-----------------2---------0-0-0--0-0-------2-2-0-----|
E|-4-4-4--4-4-4--4---0--2-4-------------4-4-4-------2-0-|
B|------------------------------------------------------|
 
[ Tab from: http://www.guitartabs.cc/tabs/m/misc_christmas/jingle_bells_btab.html ]
G|---------------------------------------------------|
D|---------------------------------------------------|
A|------------------------------0----------2-2-0-----|
E|---4-2-0----------4-2-0---------4-2------------2-4-|
B|-0-------0--0-0-0-------2---2-------4-4------------|
 
G|-------------------------------------------------------|
D|-------------------------------------------------------|
A|------------------------------0------2-2-2-2-4-2-0-----|
E|---4-2-0----------4-2-0---------4-2----------------2-0-|
B|-0-------0--0-0-0-------2---2--------------------------|
 
This is right, you arent suposed to play with the 3rd & 2nd fret
THANKS TO: Tony Mazziota for shoring me how to play it
Comments