Misc Christmas - Greensleeves What Child Is This Chords & Tabs

 

Greensleeves What Child Is This Chords & Tabs

Misc Christmas Chords & Tabs

Version: 1 Type: Tab 4 ratings
1 star 2 stars 3 stars 4 stars 5 stars
comments

Greensleeves What Child Is This Tab

Intro:

e----------0---1---0--------------------|
b-------3--------------3---2---0---2---3|
g---------------------------------------|
d---------------------------------------|
a---------------------------------------|
e---------------------------------------|
   
e---------0---1---3---1---0---------------0---1-------------------0--------|
b-----3-----------------------3---1---3-----------3---3---2---3-------2----|
g-2-----------------------------------------------------------------------2|
d--------------------------------------------------------------------------|
a--------------------------------------------------------------------------|
e--------------------------------------------------------------------------|
[ Tab from: http://www.guitartabs.cc/tabs/m/misc_christmas/greensleeves_what_child_is_this_tab.html ]
e---------0---1---3---1---0---------------0---1---0---------------------|
b-----3-----------------------3---1---3----------------3---2---0---2---3|
g-2---------------------------------------------------------------------|
d-----------------------------------------------------------------------|
a-----------------------------------------------------------------------|
e-----------------------------------------------------------------------|

e-1---1---0--------------------------------------------------------|
b-------------3---1------------------------------------------------|
g---------------------2-------0---2---3---0---0-------0---2--------|
d-------------------------3-----------------------3-----------3---0|
a------------------------------------------------------------------|
e------------------------------------------------------------------|

e-1---1---0----------------------------------------------------|
b-------------3---1--------------------------------------------|
g---------------------2-------0---2---3---2---0---------------0|
d-------------------------3-----------------------4---2---4----|
a--------------------------------------------------------------|
e--------------------------------------------------------------|

Did I do anything wrong? Email me at groovatisticvelma15@yahoo.com
Comments